Rivers Cuomo - The World We Love So Much Chords & Tabs

 

Rivers Cuomo Chords & Tabs

Version: 1 Type: Tab 0 ratings
1 star 2 stars 3 stars 4 stars 5 stars
comments

The World We Love So Much Tab

I have finally worked out the majority of this song, I tabbed the acoustic Rivers 
and not the original Gregg Alexander ver.

It took a while to get what I think sounds correct.

I am still missing random parts through out the song, but this part is played almost 
the whole thing.

This is in Drop-D tuning and capo on the third fret.
[ Tab from: http://www.guitartabs.cc/tabs/r/rivers_cuomo/the_world_we_love_so_much_tab.html ]
|------0-----|------0-----|------0-----|------0-----|
|----1-1-1---|----1-1-1---|----1-1-1---|----1-1-1---|
|--2-------2-|--2-------2-|--2-------2-|--2-------2-|
|3-----------|------------|3-----------|------------|
|------------|------------|------------|------------|
|------------|0-----------|------------|0-----------|


|------------|
|------0-----|
|----0-0-0---|
|--2-------2-|x4
|3-----------|
|------------|

Just play this part accordingly and repeat when necessary.
Comments