Rivers Cuomo - Lover In The Snow Chords & Tabs

 

Rivers Cuomo Chords & Tabs

Version: 2 Type: Tab 0 ratings
1 star 2 stars 3 stars 4 stars 5 stars
comments

Lover In The Snow Tab

   
Tuned down 1/2 a step

Eb, Ab, Db, Gb, Bb, Eb.


Intro (Part 1):

e|------------------------------------------------------------------|
B|------------------------------------------------------------------|
G|------------------------------------------------------------------|
D|-7--7--7-7--6--6--6-----6\-----4--4--4-4--------------------------|
A|-7--7--7-7--7--7--7--7--7\-----5--5--5-5-11--11--11--11--11--(11\)|
E|-5--5--5-5--5--5--5--5--5\-(0)-5--5--5-5/10--10--10--10--10--(0)--|
                       PM                              PM   

Part 2:

e|(2)(2)(2)(2)(2)(2)(2)---(2)--2--2--2-2--2--2--2-2--2--------------|
B|(2)(2)(2)(2)(2)(2)(2)---(2)--2--2--2-2--2--2--2-2--2--------------|
G|(2)(2)(2)(2)(2)(2)(2)---(2)--2--2--2-2--2--2--2-2--2--------------|
D|-4--4--4--4--4--4--4-----4---4--4--4-4--4--4--4-4--4--------------|
A|-4--4--4--4--4--4--4--4--4---4--4--4-4--4--4--4-4--4--------------|
E|-2--2--2--2--2--2--2--2--2---0--0--0-0--0--0--0-0--0--------------|
                        PM

e|--------------------------0--0--0-0-------------------------------|
B|-2--2--2-2--2--2--2-2--2--2--2--2-2-------------------------------|
G|-2--2--2-2--2--2--2-2--2--2--2--2-2-------------------------------|
D|-1--1--1-1--1--1--1-1--1--0--0--0-0--4--4--X-2--2--2--------------|
A|-------------------------------------2--2--X-2--2--2--------------|
E|-------------------------------------2--2--X-0--0--0--(0)---------|

Part 3:
[ Tab from: http://www.guitartabs.cc/tabs/r/rivers_cuomo/lover_in_the_snow_tab_ver_2.html ]
e|-----------------------------------------------------------------------------|
B|-----------------------------------------------------------------------------|
G|-2--2--2-2--2--2--2-2--2-----2--2-2--2--2--2-2--2----------------------------|
D|-3--3--3-3--3--3--3-3--3-----3--3-3--3--3--3-3--3--7--7--7-7--6--6--6-6--6---|
A|-3--3--3-3--3--3--3-3--3-----3--3-3--3--3--3-3--3--7--7--7-7--7--7--7-7--7---|
E|-1--1--1-1--1--1--1-1--1--0--1--1-1--1--1--1-1--1--5--5--5-5--5--5--5-5--5-0-|

e|-----------------------------------------------------------------------------|
B|-----------------------------------------------------------------------------|
G|-2--2--2-2--2--2--2-2--2-----2--2-2--2--2--2-2--2----------------------------|
D|-3--3--3-3--3--3--3-3--3-----3--3-3--3--3--3-3--3--7--7--7-7--6--6--6-6--6---|
A|-3--3--3-3--3--3--3-3--3-----3--3-3--3--3--3-3--3--7--7--7-7--7--7--7-7--7---|
E|-1--1--1-1--1--1--1-1--1--0--1--1-1--1--1--1-1--1--5--5--5-5--5--5--5-5--5-0-|

e|------------------------------------------------------------------------------|
B|------------------------------------------------------------------------------|
G|------------------------------------------------------------------------------|
D|------------------------------7--7-7-7-6-6--6-6--6----------------------------|
A|--11-11-11-11-11-11-11-11-11--7--7-7-7-7-7--7-7--7-11-11-11-11-11-11-11-11-11-|
E|-/10-10-10-10-10-10-10-10-10--5--5-5-5-5-5--5-5--5-10-10-10-10-10-10-10-10-10-|

Outro:

e|-5~--------|
B|-5~--------|
G|-6~--------|
D|-7~--------|
A|-7~--------|
E|-5~--------|
Comments