Rivermaya - You'll Be Safe Here Chords & Tabs

 

You'll Be Safe Here Chords & Tabs

Rivermaya Chords & Tabs

Version: 3 Type: Tab 0 ratings
1 star 2 stars 3 stars 4 stars 5 stars
comments

You'll Be Safe Here Tab

   
Album: You'll Be Safe Here
Artist: Rivermaya
Tabbed by:Oscar Ramos
Email:xbitz_3@yahoo.com


1.You'll Be Safe Here
2.Liwanag Sa Dilim(Kaya Mo 'To)
3.You'll Be Safe Here: Orchoustic Version
4.Liwanag Sa Dilim: Acoustic Version
5.Imbecilesque

1.You'll Be Safe Here

Tuning: EADBGe (Standard)

Chords:

B   - x24442
F#  - 244000
C#m - x46654
G#  - 466000
E   - 012200

Intro:B-F#-C#m-G#m-F#-E

Verse 1:

C#m
Nobody knows                
               G#m-F# 
Just why we're here
 
C#m
Could it be fate
          G#m-F#
Or random circumstance
C#m
At the right place
            G#m-F#
At the right time
          E
Two roads intertwine

Verse 2:

C#m                       
And if the universe
        G#m-F# 
conspired
C#m                                    
To meld our lives
                        G#m-F#
To make us fuel and fire
C#m                           
Then know Where ever 
         G#m-F#
you will be
      E-
So too shall I be

Chorus 1:

           B
Close your eyes
         F#
Dry your tears
          C#m           G#m
'Coz when nothing seems clear
       F#        B-  
You'll be safe here
               F#
From the sheer weight
        C#m
Of your doubts and fears
       G#m
Weary heart
       F#      E-
You'll be safe here

Verse 3:(same as verse 1)

Remember how we laughed
Until we cried
At the most stupid things
Like we were so high
But love was all 
that we were on
We belong

Verse 4:(same as verse 2)

And though the world would
Never understand
This unlikely union
And why it still stands
Someday we will 
be set free.
Pray and believe

Chorus 2:(same as chorus 1)

When the light disappears
And when this world's insincere
You'll be safe here
When nobody hears you scream	
I'll scream with you
You'll be safe here

Instrumental:B-F#-A-G#m-G-F#

Chorus 3:(same as chorus 1)

Save your eyes
From your tears
When everything's unclear
You'll be safe here
From the sheer weight          
Of your doubts and fears
Wounded heart

Chorus 4:(same as chorus 1)

When the light disappears
And when this world's insincere
You'll be safe here
When nobody hears you scream
I'll scream with you
You'll be safe here

Chours 5:(same as chorus 2)

In my arms
Through the long cold night
Sleep tight
You'll be safe here
When no one
understands
I'll believe
You'll be safe,     
You'll be safe
You'll be safe here
Put your heart in my hands
You'll be safe here

2.Liwanag Sa Dilim(Kaya Mo 'To)

Tuning: EADBGe (Standard)

Intro:

e|------6-6-6-6-----|-----6-6-6----------------|
B|------6-6-6-6-----|-----6-6-6----------------|
G|------------------|--------------------------|(repeat 3x)
D|---3----------3-5-|-6---------5-3------------|
A|------------------|---------------6----------|
E|------------------|--------------------------|

e|---6-6-6-6-----|-6-6-6-6-6------|---------------|----------------|
B|---6-6-6-6-----|-6-6-6-6-6------|---------------|----------------|
G|---------------|----------------|---------------|----------------|
D|-----------3-5-|------------8-7-|-----------8-7-|-----------8-7--|
A|-1-------------|------------6-5-|-8--8-8-8--6-5-|-6--6-6-6--6-5--|
E|---------------|----------------|-6--6-6-6------|-4--4-4-4-------|

e|---------------|---------------|---------------|---------------|-----------|
B|---------------|---------------|---------------|---------------|-----------|
G|---------------|---------------|---------------|---------------|-----------|
D|---------------|-----------8-7-|-----------8-7-|---------------|-5-5-5-5-6-|
A|-8--8-8-8--3-5-|-6--6-6-6--6-5-|-8--8-8-8--6-5-|-6--6-6-6--6-6-|-5-5-5-5-6-|
E|-6--6-6-6--1-3-|-4--4-4-4------|-6--6-6-6------|-4--4-4-4--4-4-|-3-3-3-3-4-|
		
Verse 1:

e|------6-6-6-6-----|-----6-6-6----------------|
B|------6-6-6-6-----|-----6-6-6----------------|
G|------------------|--------------------------|(repeat 4x)
D|---3----------3-5-|-6---------5-3------------|
A|------------------|---------------6----------|
E|------------------|--------------------------|

Pre-Chorus:

e|-1/3p1--------|--------------|-1/3p1---------|---------------|
B|--------------|-8\6----------|---------------|---------------|
G|--------------|-7\5-b5r5---3-|---------------|---------------|
D|--------------|--------------|---------------|-6-6-6-6--8-7--|
A|--------------|--------------|---------------|-6-6-6-6--6-5--|
E|--------------|--------------|---------------|-4-4-4-4-------|

Chorus:

e|---------------|----------------|---------------|---------------|
B|---------------|----------------|---------------|---------------|
G|---------------|----------------|---------------|---------------|
D|-----------8-7-|-----------8-7--|---------------|-----------8-7-|
A|-8--8-8-8--6-5-|-6--6-6-6--6-5--|-8--8-8-8--3-5-|-6--6-6-6--6-5-|
E|-6--6-6-6------|-4--4-4-4-------|-6--6-6-6--1-3-|-4--4-4-4------|

e|---------------|----------------|---------------|----|
B|---------------|----------------|---------------|----|
G|---------------|----------------|---------------|----|
D|-----------8-7-|-----------8-7--|---------------|----|
A|-8--8-8-8--6-5-|-6--6-6-6--6-5--|-8--8-8-8--3-5-|-6--|
E|-6--6-6-6------|-4--4-4-4-------|-6--6-6-6--1-3-|-4--|

Interlude:

e|---------------|----------------|--------------------|
B|---------------|----------------|--------------------|
G|---------------|----------------|--------------------|
D|-----------8-7-|-----------8-7--|------------3-5--b5-|
A|-8--8-8-8--6-5-|-6--6-6-6--6-5--|-8--8-8-8-----------|
E|-6--6-6-6------|-4--4-4-4-------|-6--6-6-6-----------|

Verse 2:Bbsus2-Ab-Bb-Ab

e|----6-6-6-6-6-6-6-|---4-4-4-4-4-4-4-4-|----6-6-6-6-6-6-6-6-|----4-4-4-4-4-4-4-4--|
B|----6-6-6-6-6-6-6-|---1-1-1-1-1-1-1-1-|----6-6-6-6-6-6-6-6-|----1-1-1-1-1-1-1-1--|
G|----3-3-3-3-3-3-3-|---1-1-1-1-1-1-1-1-|----3-3-3-3-3-3-3-3-|----1-1-1-1-1-1-1-1--|(repeat)
D|----3-3-3-3-3-3-3-|---1-1-1-1-1-1-1-1-|----3-3-3-3-3-3-3-3-|----1-1-1-1-1-1-1-1--|
A|------------------|-------------------|--------------------|---------------------|
E|-6----------------|-4-----------------|-6------------------|-4-------------------|

(repeat Pre-Chorus)
(repeat Chorus)

Adlib:

e|-11p10----13p10----11p10----13p10----15p10----|
B|-------11-------11-------11-------11-------11-|
G|----------------------------------------------|
D|----------------------------------------------|
A|----------------------------------------------|
E|----------------------------------------------|

e|---------10-11p10----13p10----11p10----13-10----|
B|------11----------11-------11-------11-------11-|
G|-9h11-------------------------------------------|
D|------------------------------------------------|
A|------------------------------------------------|
E|------------------------------------------------|

e|-------------------|----------------------------------------------|
B|-6/8---------------|----------------------------------------------|
G|-----5/7-----------|----------------------------------------------|
D|---------3/5-------|----------------------------------------------|
A|-------------3/5---|-10\8-8-8-8-x-x-10\8-8-8-8-x-x-10\8-8-8-8-----|
E|-----------------6-|----------------------------------------------|


e|-11p10----13p10----11p10----13p10----15p10----|
B|-------11-------11-------11-------11-------11-|
G|----------------------------------------------|
D|----------------------------------------------|
A|----------------------------------------------|
E|----------------------------------------------|


e|---------10-11p10----13p10----11p10----13-10----|
B|------11----------11-------11-------11-------11-|
G|-9h11-------------------------------------------|
D|------------------------------------------------|
A|------------------------------------------------|
E|------------------------------------------------|

        T        T      T        T      T       T       T       T
e|------------------------------------------------------------------|
B|-6/11-15-6/11-15-6/11-15-6/11-15-6/11-15-6/11-15-6/11-15-6/11-15--|
G|------------------------------------------------------------------|
D|------------------------------------------------------------------|
A|------------------------------------------------------------------|
E|------------------------------------------------------------------|

        T        T      T        T      T       T       T       T
e|------------------------------------------------------------------|
B|-6/11-16-6/11-16-6/11-16-6/11-16-6/11-16-6/11-16-6/11-16-6/11-16--|
G|------------------------------------------------------------------|
D|------------------------------------------------------------------|
A|------------------------------------------------------------------|
E|------------------------------------------------------------------|

e|------------------------------13-----------------|
B|----------------13h15p13h15-------16---15--------|
G|-13h15p13h15-13------------------------------15--|
D|-------------------------------------------------|
A|-------------------------------------------------|
E|-------------------------------------------------|

Bridge:(Palm Mute)

e|-----------------|-------------------------|-----------------|-----------------|
B|-----------------|-------------------------|-----------------|-----------------|
G|-----------------|-------------------------|-----------------|-----------------|
D|-----------------|-------------------------|-----------------|-8-8-8-8-8-8-8-8-|
A|-8-8-8-8-8-8-8-8-|-10-10-10-10-10-10-10-10-|-6-6-6-6-6-6-6-6-|-6-6-6-6-6-6-6-6-|
E|-6-6-6-6-6-6-6-6-|-8--8--8--8--8--8--8--8--|-4-4-4-4-4-4-4-4-|-----------------|

e|-----------------|-----------------|-----------------|------------------|
B|-----------------|-----------------|-----------------|------------------|
G|-----------------|-----------------|-----------------|------------------|
D|-----------------|-----------------|-----------------|-------------8-7--|
A|-5-5-5-5-5-5-5-5-|-6-6-6-6-6-6-6-6-|-5-5-5-5-5-5-5-5-|-6-----------6-5--|
E|-3-3-3-3-3-3-3-3-|-4-4-4-4-4-4-4-4-|-3-3-3-3-3-3-3-3-|-4----------------|

Out-Chorus:

e|-------------------|---------------------------|-------------------|-------------------|
B|-------------------|---------------------------|-------------------|-------------------|
G|-------------------|---------------------------|-------------------|-------------------|
D|-------------------|---------------------------|-------------------|-8-8-8-8--8--8-8-8-|
A|-8-8-8-8--8--8-8-8-|-10-10-10-10--10--10-10-10-|-6-6-6-6--6--6-6-6-|-6-6-6-6--6--6-6-6-|
E|-6-6-6-6--6--6-6-6-|-8--8--8--8---8---8--8--8--|-4-4-4-4--4--4-4-4-|-------------------|

e|-----------------|-----------------|-----------------|---------------------|
B|-----------------|-----------------|-----------------|---------------------|
G|-----------------|-----------------|-----------------|---------------------|
D|-5-5-5-5-5-5-5-5-|-6-6-6-6-6-6-6-6-|-5-5-5-5-5-5-5-5-|-6(let it ring)------|
A|-5-5-5-5-5-5-5-5-|-6-6-6-6-6-6-6-6-|-5-5-5-5-5-5-5-5-|-4-------------------|
E|-3-3-3-3-3-3-3-3-|-4-4-4-4-4-4-4-4-|-3-3-3-3-3-3-3-3-|-4-------------------|

Outro:

e|---------------|----------------|---------------|---------------|----------------|
B|---------------|----------------|---------------|---------------|----------------|
G|---------------|----------------|---------------|---------------|----------------|
D|-----------8-7-|-----------8-7--|---------------|-----------8-7-|-----------8-7--|
A|-8--8-8-8--6-5-|-6--6-6-6--6-5--|-8--8-8-8--3-5-|-6--6-6-6--6-5-|-8--8-8-8--6-5--|
E|-6--6-6-6------|-4--4-4-4-------|-6--6-6-6--1-3-|-4--4-4-4------|-6--6-6-6-------|
[ Tab from: http://www.guitartabs.cc/tabs/r/rivermaya/youll_be_safe_here_tab_ver_3.html ]
e|---------------|---------------|----------------|----------------|
B|---------------|---------------|----------------|----------------|
G|---------------|---------------|------------8-7-|----------------|
D|-----------8-7-|---------------|------------8-7-|--8-------------|
A|-6--6-6-6--6-5-|-8--8-8-8--3-5-|-6--6-6-6---6-5-|--8-------------|
E|-4--4-4-4------|-6--6-6-6--1-3-|-4--4-4-4-------|--6-------------|


3.You'll Be Safe Here: Orchoustic Version

Tuning: EADBGe (Standard)

Chords:

B   - x24442
F#  - 244000
C#m - x46654
G#  - 466000
E   - 012200

Intro:B-F#-C#m-G#m-F#-E

Verse 1:

C#m
Nobody knows                
               G#m-F# 
Just why we're here
 
C#m
Could it be fate
          G#m-F#
Or random circumstance
C#m
At the right place
            G#m-F#
At the right time
          E
Two roads intertwine

Verse 2:

C#m                       
And if the universe
        G#m-F# 
conspired
C#m                                    
To meld our lives
                        G#m-F#
To make us fuel and fire
C#m                           
Then know Where ever 
         G#m-F#
you will be
      E-
So too shall I be

Chorus 1:

           B
Close your eyes
         F#
Dry your tears
          C#m           G#m
'Coz when nothing seems clear
       F#        B-  
You'll be safe here
               F#
From the sheer weight
        C#m
Of your doubts and fears
       G#m
Weary heart
       F#      E-
You'll be safe here

Verse 3:(same as verse 1)

Remember how we laughed
Until we cried
At the most stupid things
Like we were so high
But love was all 
that we were on
We belong

Verse 4:(same as verse 2)

And though the world would
Never understand
This unlikely union
And why it still stands
Someday we will 
be set free.
Pray and believe

Chorus 2:(same as chorus 1)

When the light disappears
And when this world's insincere
You'll be safe here
When nobody hears you scream	
I'll scream with you
You'll be safe here

Instrumental:B-F#-A-G#m-G-F#

Chorus 3:(same as chorus 1)

Save your eyes
From your tears
When everything's unclear
You'll be safe here
From the sheer weight          
Of your doubts and fears
Wounded heart

Chorus 4:(same as chorus 1)

When the light disappears
And when this world's insincere
You'll be safe here
When nobody hears you scream
I'll scream with you
You'll be safe here

Chours 5:(same as chorus 2)

In my arms
Through the long cold night
Sleep tight
You'll be safe here
When no one
understands
I'll believe
You'll be safe,     
You'll be safe
You'll be safe here
Put your heart in my hands
You'll be safe here



4.Liwanag Sa Dilim: Acoustic Version

Tuning: EADBGe (Standard)

Chords:

Bb - x1333x
Ab - 466544
Gm - 355333

Intro:

e|------6-6-6-6-----|-----6-6-6----------------|
B|------6-6-6-6-----|-----6-6-6----------------|
G|------------------|--------------------------|(repeat 3x)
D|---3----------3-5-|-6---------5-3------------|
A|------------------|---------------6----------|
E|------------------|--------------------------|

e|---6-6-6-6-----|-6-6-6-6-6------|---------------|----------------|
B|---6-6-6-6-----|-6-6-6-6-6------|---------------|----------------|
G|---------------|----------------|---------------|----------------|
D|-----------3-5-|------------8-7-|-----------8-7-|-----------8-7--|
A|-1-------------|------------6-5-|-8--8-8-8--6-5-|-6--6-6-6--6-5--|
E|---------------|----------------|-6--6-6-6------|-4--4-4-4-------|

e|---------------|---------------|---------------|---------------|-----------|
B|---------------|---------------|---------------|---------------|-----------|
G|---------------|---------------|---------------|---------------|-----------|
D|---------------|-----------8-7-|-----------8-7-|---------------|-5-5-5-5-6-|
A|-8--8-8-8--3-5-|-6--6-6-6--6-5-|-8--8-8-8--6-5-|-6--6-6-6--6-6-|-5-5-5-5-6-|
E|-6--6-6-6--1-3-|-4--4-4-4------|-6--6-6-6------|-4--4-4-4--4-4-|-3-3-3-3-4-|
		
Verse 1:

    Bb
Ituring ang iyong sarilin
   Ab
Tagahawi ng ulap
Bb               Ab
Sa kalagitang kulimlim
 Bb
Kampanang yayanig 
     Ab
Sa bawat nilalang
Bb
Magigising ang lupang
          Ab
Kulang sa dilig

Pre-Chorus:

Gm                  
Ikaw ang magsasabing
Ab
"Kaya mo to!"
Gm
Tulad ng isang tanglaw
Ab
Sa gitna ng bagyo

Chorus:

e|-------------------|----------------|---------------|---------------|
B|-------------------|----------------|---------------|---------------|
G|-------------------|----------------|---------------|---------------|
D|-8-7-----------8-7-|-----------8-7--|---------------|-----------8-7-|
A|-6-5-8--8-8-8--6-5-|-6--6-6-6--6-5--|-8--8-8-8--3-5-|-6--6-6-6--6-5-|
E|-----6--6-6-6------|-4--4-4-4-------|-6--6-6-6--1-3-|-4--4-4-4------|

e|---------------|----------------|---------------|----|
B|---------------|----------------|---------------|----|
G|---------------|----------------|---------------|----|
D|-----------8-7-|-----------8-7--|---------------|----|
A|-8--8-8-8--6-5-|-6--6-6-6--6-5--|-8--8-8-8--3-5-|-6--|
E|-6--6-6-6------|-4--4-4-4-------|-6--6-6-6--1-3-|-4--|

Interlude:

e|----------------|----------------|---------------|------------|
B|----------------|----------------|---------------|------------|
G|----------------|----------------|---------------|------------|
D|------------8-7-|-----------8-7--|---------------|------------|
A|--8--8-8-8--6-5-|-6--6-6-6--6-5--|-8--8-8-8--3-5-|-6--6-6-6---|
E|--6--6-6-6------|-4--4-4-4-------|-6--6-6-6--1-3-|-4--4-4-4---|

Verse 2:(same as verse 1)

At sa paghamon mo
Sa agos ng ating
Kasaysayan
Uukit ka ng
Bagong daan

Pre-Chorus:(same as pre-chorus chords)

Ikaw ang aawit ng
"Kaya mo to!"
'sang panalagin
Sa gitna ng gulo

(repeat Chorus)

Breakdown:

e|-------------------|----------------|---------------|---------------|
B|-------------------|----------------|---------------|---------------|
G|-------------------|----------------|---------------|---------------|
D|-8-7-----------8-7-|-----------8-7--|---------------|-----------8-7-|
A|-6-5-8--8-8-8--6-5-|-6--6-6-6--6-5--|-8--8-8-8--3-5-|-6--6-6-6--6-5-|
E|-----6--6-6-6------|-4--4-4-4-------|-6--6-6-6--1-3-|-4--4-4-4------|

e|---------------|----------------|---------------|------------|
B|---------------|----------------|---------------|------------|
G|---------------|----------------|---------------|------------|
D|-----------8-7-|-----------8-7--|---------------|------------|
A|-8--8-8-8--6-5-|-6--6-6-6--6-5--|-8--8-8-8--3-5-|-6--6-6-6-6-|
E|-6--6-6-6------|-4--4-4-4-------|-6--6-6-6--1-3-|-4--4-4-4-4-|

Bridge:(Palm Mute)

e|-----------------|-------------------------|-----------------|-----------------|
B|-----------------|-------------------------|-----------------|-----------------|
G|-----------------|-------------------------|-----------------|-----------------|
D|-----------------|-------------------------|-----------------|-8-8-8-8-8-8-8-8-|
A|-8-8-8-8-8-8-8-8-|-10-10-10-10-10-10-10-10-|-6-6-6-6-6-6-6-6-|-6-6-6-6-6-6-6-6-|
E|-6-6-6-6-6-6-6-6-|-8--8--8--8--8--8--8--8--|-4-4-4-4-4-4-4-4-|-----------------|

e|-----------------|-----------------|-----------------|------------------|
B|-----------------|-----------------|-----------------|------------------|
G|-----------------|-----------------|-----------------|------------------|
D|-----------------|-----------------|-----------------|-------------8-7--|
A|-5-5-5-5-5-5-5-5-|-6-6-6-6-6-6-6-6-|-5-5-5-5-5-5-5-5-|-6-----------6-5--|
E|-3-3-3-3-3-3-3-3-|-4-4-4-4-4-4-4-4-|-3-3-3-3-3-3-3-3-|-4----------------|

Out-Chorus:

e|-------------------|---------------------------|-------------------|-------------------|
B|-------------------|---------------------------|-------------------|-------------------|
G|-------------------|---------------------------|-------------------|-------------------|
D|-------------------|---------------------------|-------------------|-8-8-8-8--8--8-8-8-|
A|-8-8-8-8--8--8-8-8-|-10-10-10-10--10--10-10-10-|-6-6-6-6--6--6-6-6-|-6-6-6-6--6--6-6-6-|
E|-6-6-6-6--6--6-6-6-|-8--8--8--8---8---8--8--8--|-4-4-4-4--4--4-4-4-|-------------------|

e|-----------------|-----------------|-----------------|---------------------|
B|-----------------|-----------------|-----------------|---------------------|
G|-----------------|-----------------|-----------------|---------------------|
D|-5-5-5-5-5-5-5-5-|-6-6-6-6-6-6-6-6-|-5-5-5-5-5-5-5-5-|-6(let it ring)------|
A|-5-5-5-5-5-5-5-5-|-6-6-6-6-6-6-6-6-|-5-5-5-5-5-5-5-5-|-4-------------------|
E|-3-3-3-3-3-3-3-3-|-4-4-4-4-4-4-4-4-|-3-3-3-3-3-3-3-3-|-4-------------------|

Outro:

e|---------------|----------------|---------------|---------------|----------------|
B|---------------|----------------|---------------|---------------|----------------|
G|---------------|----------------|---------------|---------------|----------------|
D|-----------8-7-|-----------8-7--|---------------|-----------8-7-|-----------8-7--|
A|-8--8-8-8--6-5-|-6--6-6-6--6-5--|-8--8-8-8--3-5-|-6--6-6-6--6-5-|-8--8-8-8--6-5--|
E|-6--6-6-6------|-4--4-4-4-------|-6--6-6-6--1-3-|-4--4-4-4------|-6--6-6-6-------|

e|---------------|---------------|----------------|----------------|
B|---------------|---------------|----------------|----------------|
G|---------------|---------------|------------8-7-|----------------|
D|-----------8-7-|---------------|------------8-7-|--8-------------|
A|-6--6-6-6--6-5-|-8--8-8-8--3-5-|-6--6-6-6---6-5-|--8-------------|
E|-4--4-4-4------|-6--6-6-6--1-3-|-4--4-4-4-------|--6-------------|



5.Imbecilesque

Tuning: EADBGe (Standard)

Chords:

A   - x02220
E   - 022100
D   - xx0232
Dm  - xx0231
Bm  - x24432
F#m - 244222
C#m - x46654

Intro: A-F#m-Bm-E (2x)

Verse 1:

A		F#m
Good morning baby
Bm		E
Are you still mad at me?
A		   F#m
I guess I couldn't blame you
Bm		E
I instigated this big mess
A   C#	    D-Dm		
I acted imbecilesque 
    A   E
I know  Ohh...

Verse 2:

A	F#m
That I could have heard you
Bm           E
And I been listening, but
A	     F#m
Instead my arrogance
Bm	E	     A		   C#m	     D-Dm
Divided us and now I'm messed up big time like my guitar
	A		E
'Cos I love you, but I hurt you

Refrain:

	    Bm				    E
And though I wish that I could make you smile
	    Bm		   E
There is nothin' that I can do
	    Bm				E
Excepting the little song across the miles

Chorus:

    A	  F#m	  Bm
I'm terribly sorry
E	A
And I hope
    F#m	      Bm
You forgive me
E    A	    F#m	   Bm
I am terribly sorry
E
Baby

Adlib:A-F#m-E-Bm (2x)

Bridge:

Bm	 E
I acted totally
    A	     C#m	D-Dm
And now self-centered imbecilesques
   A		   E
I love you, but I hurt you

(repeat Refrain)
(repeat Chorus)

-End-

Legend:

| B  bend
| r  bend release
| /  slide up
| \  slide down
| h  hammer-on
| p  pull-off
| ~  vibrato
| +  harmonic
| x  Mute note

Comment?Email or Message lng sa friendster..
xbitz_3@yahoo.com ramos06_oscar@yahoo.com add nyo n lng testi din pde heheheh...

Comments