Rivermaya - You'll Be Safe Here Chords & Tabs

 

You'll Be Safe Here Chords & Tabs

Rivermaya Chords & Tabs

Version: 2 Type: Tab 0 ratings
1 star 2 stars 3 stars 4 stars 5 stars
comments

You'll Be Safe Here Tab

   
mejo iniba ko tong tab na to compared sa una...rate nio n lng p0:)

Standard Tuning: eBGDAE

Standard tuning
EADGBe

Intro:

guitar 1:

       B	       F#	       C#m	       G#m     F#      E

e|-----2---------------2---------------4---------------4-------2-------0--|  
B|-----4---------------2---------------5---------------4-------2-------0--|  
G|-----4---------------3---------------6---------------4-------3-------1--|   
D|-----4---------------4---------------6---------------6-------4-------2--|     
A|-----2---------------4---------------4---------------6-------4-------2--|     
E|-----2---------------2---------------4---------------4-------2-------0--|     

guitar 2: 

e|-----------------------------------------------------------|
B|-----------------------------------------------------------|
G|-------8---9---8---9---8---9---8---9---8---9---8---9-------|
D|-----9---9---9---9---9---9---9---9---9---9---9---9---------|
A|-----------------------------------------------------------|
E|-----------------------------------------------------------|

Stanza 1 - 2:

       Nobody knows just why were here...
       C#m		      G#m	F#

e|-----4--4--4----------------4--4------2--2--2---------------|
B|-----5--5--5----------------4--4------2--2--2---------------|
G|-----6--6--6----------------4--4------3--3--3---------------|
D|-----6--6--6----------------6---------4---------------------|
A|-----4--4--4----------------6---------4---------------------|
E|----------------------------4---------2---------------------|

	At the right place...		      Two roads intertwine....
       C#m		      G#m	F#      	   E	

e|-----4--4--4----------------4--4------4--4--4------------0-----------|
B|-----5--5--5----------------4--4------4--4--4------------0-----------|
G|-----6--6--6----------------4--4------3--3--3------------1-----------|
D|-----6--6--6----------------6---------4------------------2-----------|
A|-----4--4--4----------------6---------4------------------2-----------|
E|----------------------------4---------2------------------0-----------|

	And if the universe conspired...
       C#m		      G#m	F#

e|-----4--4--4----------------4--4------2--2--2---------------|
B|-----5--5--5----------------4--4------2--2--2---------------|
G|-----6--6--6----------------4--4------3--3--3---------------|
D|-----6--6--6----------------6---------4---------------------|
A|-----4--4--4----------------6---------4---------------------|
E|-----4--4--4----------------4---------2---------------------|

	Then know where ever you will be...
       C#m		      G#m	F#      		  

e|-----4--4--4----------------4--4------4--4--4------------|
B|-----5--5--5----------------4--4------4--4--4------------|
G|-----6--6--6----------------4--4------3--3--3------------|
D|-----6--6--6----------------6---------4------------------|
A|-----4--4--4----------------6---------4------------------|
E|-----4--4--4----------------4---------2------------------|

	 so too shall i be...
   	E

e|----------------------|
B|----------------------|
G|-----9-9-9-9-9-9-9-9--|
D|-----9-9-9-9-9-9-9-9--|
A|-----7-7-7-7-7-7-7-7--|
E|----------------------|

Chorus 1:

guitar 1:

	Close your eyes....  ....tears		
       B	   F#		C#m	      G#m

e|-----2--2--2-----2--2--2------4--4--4-------4--4-----|
B|-----4--4--4-----2--2--2------5--5--5-------4--4-----|
G|-----4--4--4-----3--3--3------6--6--6-------4--4-----|
D|-----4--4--4-----4--4--4------6--6--6-------6--6-----|
A|-----2--2--2-----4--4--4------4--4--4-------6--6-----|
E|-----2--2--2-----2--2--2------4--4--4-------4--4-----|

     ...You'll be safe here   From the sheer weight    	
       F#	B	     F#		  C#m       G#m       F#       E

e|-----2--2--- -2--2--2------2--2--2------4--4--4----4--4-----2--2-----0-----|
B|-----2--2-----4--4--4------2--2--2------5--5--5----4--4-----2--2-----0-----|
G|-----3--3-----4--4--4------3--3--3------6--6--6----4--4-----3--3-----1-----|
D|-----4--4-----4--4--4------4--4--4------6--6--6----6--6-----4--4-----2-----|
A|-----4--4-----2--2--2------4--4--4------4--4--4----6--6-----4--4-----2-----|
E|-----2--2-----2--2--2------2--2--2------4--4--4----4--4-----2--2-----0-----|

guitar 2:

e|-----------------------------------------------------------|
B|-----------------------------------------------------------|
G|-------8---9---8---9---8---9---8---9---8---9---8---9-------|
D|-----9---9---9---9---9---9---9---9---9---9---9---9---------|
A|-----------------------------------------------------------|
E|-----------------------------------------------------------|


Stanza 3 - 4:(same as stanza 1 - 2)

Chorus 2:(same as chorus 1)

Instrumental
[ Tab from: http://www.guitartabs.cc/tabs/r/rivermaya/youll_be_safe_here_tab_ver_2.html ]
    here..
	B		    F#		     F#-G#m-A		 G#m	  Gm       F#m
e|------2-2-2-2-2-2-2-2-2---2-2-2-2-2-2-2-2--2-4-5-5-5-5-5-5-5-------------------------------|
B|------4-4-4-4-4-4-4-4-4---2-2-2-2-2-2-2-2--2-4-5-5-5-5-5-5-5-------------------------------|
G|------4-4-4-4-4-4-4-4-4---3-3-3-3-3-3-3-3--3-4-6-6-6-6-6-6-6-------------------------------|
D|------4-4-4-4-4-4-4-4-4---4-4-4-4-4-4-4-4--4/6-7-7-7-7-7-7-7---6-6-6-6--5-5-5-5--4-4-4-4---|
A|------2-2-2-2-2-2-2-2-2---4-4-4-4-4-4-4-4--4/6-7-7-7-7-7-7-7---6-6-6-6--5-5-5-5--4-4-4-4---|
E|------2-2-2-2-2-2-2-2-2---2-2-2-2-2-2-2-2--2/4-5-5-5-5-5-5-5---4-4-4-4--3-3-3-3--2-2-2-2---|

Chorus 3:

guitar 1:

	Save your eyes...
       B	   F#		C#m	       G#m

e|-----2--2--2-----2--2--2------4--4---4-------4--4-----|
B|-----4--4--4-----2--2--2------5--5---5-------4--4-----|
G|-----4--4--4-----3--3--3------6--6---6-------4--4-----|
D|-----4--4--4-----4--4--4------6--6---6-------6--6-----|
A|-----2--2--2-----4--4--4------4--4---4-------6--6-----|
E|-----2--2--2-----2--2--2------4--4---4-------4--4-----|

     ...You'll be safe here   From the sheer weight    	
       F#	       B	    F#		 C#m

e|-----2--2------------2--2--2------2--2--2------4--4-----2--2-----|
B|-----2--2------------4--4--4------2--2--2------4--4-----2--2-----|
G|-----3--3------------4--4--4------3--3--3------4--4-----3--3-----|
D|-----4--4------------4--4--4------4--4--4------6--6-----4--4-----|
A|-----4--4------------2--2--2------4--4--4------6--6-----4--4-----|
E|-----2--2------------2--2--2------2--2--2------4--4-----2--2-----|

guitar 2:

e|-----------------------------------------------------------|
B|-----------------------------------------------------------|
G|-------8---9---8---9---8---9---8---9---8---9---8---9-------|
D|-----9---9---9---9---9---9---9---9---9---9---9---9---------|
A|-----------------------------------------------------------|
E|-----------------------------------------------------------|

Chorus 4 - 5:

guitar 1:

	When the light...
       B	   F#		C#m	       G#m

e|-----2--2--2-----2--2--2------4--4---4-------4--4-----|
B|-----4--4--4-----2--2--2------5--5---5-------4--4-----|
G|-----4--4--4-----3--3--3------6--6---6-------4--4-----|
D|-----4--4--4-----4--4--4------6--6---6-------6--6-----|
A|-----2--2--2-----4--4--4------4--4---4-------6--6-----|
E|-----2--2--2-----2--2--2------4--4---4-------4--4-----|

     ...You'll be safe here   When nobody...   	
       F#	       B	    F#		 C#m	     G#m      F# 	
			
e|-----2--2------------2--2--2------2--2--2------4--4--4-----4--4-----2--2-----|
B|-----2--2------------4--4--4------2--2--2------5--5--5-----4--4-----2--2-----|
G|-----3--3------------4--4--4------3--3--3------6--6--6-----4--4-----3--3-----|
D|-----4--4------------4--4--4------4--4--4------6--6--6-----6--6-----4--4-----|
A|-----4--4------------2--2--2------4--4--4------4--4--4-----6--6-----4--4-----|
E|-----2--2------------2--2--2------2--2--2------4--4--4-----4--4-----2--2-----|

	In my arms...
       B	   F#		C#m	       G#m

e|-----2--2--2-----2--2--2------4--4---4-------4--4-----|
B|-----4--4--4-----2--2--2------5--5---5-------4--4-----|
G|-----4--4--4-----3--3--3------6--6---6-------4--4-----|
D|-----4--4--4-----4--4--4------6--6---6-------6--6-----|
A|-----2--2--2-----4--4--4------4--4---4-------6--6-----|
E|-----2--2--2-----2--2--2------4--4---4-------4--4-----|

   ...You'll be safe here   When no one...   	
       F#	       B	    F#		 C#m	     G#m      F# 	
			
e|-----2--2------------2--2--2------2--2--2------4--4--4-----4--4-----2--2-----|
B|-----2--2------------4--4--4------2--2--2------5--5--5-----4--4-----2--2-----|
G|-----3--3------------4--4--4------3--3--3------6--6--6-----4--4-----3--3-----|
D|-----4--4------------4--4--4------4--4--4------6--6--6-----6--6-----4--4-----|
A|-----4--4------------2--2--2------4--4--4------4--4--4-----6--6-----4--4-----|
E|-----2--2------------2--2--2------2--2--2------4--4--4-----4--4-----2--2-----|

	you'll be safe..
       B	   F#		C#m	       G#m      F#

e|-----2--2--2-----2--2--2------4--4---4-------4--4-----2--2--|
B|-----4--4--4-----2--2--2------5--5---5-------4--4-----2--2--|
G|-----4--4--4-----3--3--3------6--6---6-------4--4-----3--3--|
D|-----4--4--4-----4--4--4------6--6---6-------6--6-----4--4--|
A|-----2--2--2-----4--4--4------4--4---4-------6--6-----2--2--|
E|-----2--2--2-----2--2--2------4--4---4-------4--4-----2--2--|

guitar 2:

e|--------11----12----11----12----11----12----11----12----11----12----11----12-----|
B|-----12----12----12----12----12----12----12----12----12----12----12----12--------|
G|---------------------------------------------------------------------------------|
D|---------------------------------------------------------------------------------|
A|---------------------------------------------------------------------------------|
E|---------------------------------------------------------------------------------|

Outro:
   	      Put your heart in my hands...  You'll be safe here....
	B	       A	     E		    Em

e|------2--2--2--2-----0--0--0--0----0--0--0--------0--0-------------0------------------------|
B|------4--4--4--4-----2--2--2--2----0--0--0--------0--0-----------4---4----------------------|
G|------4--4--4--4-----2--2--2--2----1--1--1--------0--0---------4-------4--------------------|
D|------4--4--4--4-----2--2--2--2----2--2--2--------2--2-------4-----------4  //let ring...---|
A|------2--2--2--2-----0--0--0--0----2--2--2--------2--2-----2--------------------------------|
E|-----------------------------------0--0--0--------0--0--------------------------------------|
Comments