Rivermaya - You'll Be Safe Here Chords & Tabs

 

You'll Be Safe Here Chords & Tabs

Rivermaya Chords & Tabs

Version: 3 Type: Bass Tab 0 ratings
1 star 2 stars 3 stars 4 stars 5 stars
comments

You'll Be Safe Here Bass Tab

   
-------------------------------------------------------------------------------
			     You'll Be Safe Here-Rivermaya
-------------------------------------------------------------------------------

Tabbed By : Benjie Paraggua
e-mail: VaynardX@yahoo.com

Tuning:Standard

Intro:
G|--------------------------------------------------------------------------------------|
D|--------------------------------------------------------------------------------------|
A|-2---4--------------------------------------------------------------------------------|
E|---2---4-4--2-2-0---------------------------------------------------------------------|

Verse 1
G|---------------------------------------------------------|
D|------------------------------------------7b-9b----------|
A|-4-4-2-4---4-4--------------4-4-2-4--4-4--------7-7-7-7--|
E|--------------4-4-2-2-4-6--------------------------------|

G|---------------------------------------------------------|
D|---------------------------------------------------------|
A|-4-4-2-4---4/6-6-----------------------------------------|
E|----------------4-4-2-2-0-0-0-0-0-0-0-0-0-0-0-0-0-0-0-0--|

Chorus:
G|-------------------------------------------------------|
D|-------------------------------------------------------|
A|-2-2--2-2-22-------------4-4-4-4-4-4-4-4---------------|
E|-------------2-2--2-2-22-----------------4-4--2-2-2-2--|
*Repeat as many times as needed

Verse 2
*same as verse 1 but slight variation in "And though the world will never understand":

G|--------------------------------------------------------------------------------------|
D|--------------------------------------------------------------------------------------|
A|-4--4--44-4-4h6-----------------------------------------------------------------------|
E|----------------4-4--2-2-2------------------------------------------------------------|
[ Tab from: http://www.guitartabs.cc/tabs/r/rivermaya/youll_be_safe_here_btab_ver_3.html ]
G|-----------------------------------------------------------|
D|-----------------------------------------------------------|
A|-4--4--44-4-4h6--------------------------------------------|
E|----------------4-4--2-2--0-0-0-0-0-0-0-0-0-0-0-0-0-0-0-0--|
*Repeat Chorus

Bridge:
G|-----------------------------------------------------------|
D|-----------------------------------------------------------|
A|-2-2-2-2-2-2-2-2-------------------------------------------|
E|-----------------2-2-2-2-2--2-2h4-5-5-5-5-5-5-5-5--4--4-4-4|

G|--------------------------------------------------------|
D|--------------------------------------------------------|
A|--------------------------------------------------------|
E|-4-4-4-3-3-3-3-3-3-3-3-2-2-2-2-2-2-2-2-2-2-2-2-2-2-2-2--|

Chorus:
G|-------------------------------------------------------|
D|-------------------------------------------------------|
A|-2-2-2-2-22------------4-4-4-4-4-4-4-4-----------------|
E|------------2-2-2-2-22-----------------4-4--2-2-2-2-2--|

Slight Variation:"From the sheer weight...Of your doubts and fears...Wounded Heart"
G|-------------------------------------------------------|
D|-------------------------------------------------------|
A|-2-2-2-2-22--------------------------------------------|
E|------------2-2-2-2-22-5-5-5-5-5-5-5-5-4-4--2-2-2-2-2--|
Note:in the last chorus,alternately change from C# to A.

Outro:
G|---------------------------------------------------------------------------------|
D|---------------------------------------------------------------------------------|
A|---------------------------------------------------------------------------------|
E|-7----5----0----0----------------------------------------------------------------|

Legend:
| h  hammer-on
=============================================================================

I dedicate this song to Charisse Pabillore. This song is very nice. Sana magustuhan 
ang tab ko. E-mail me if you have questions. Paki rate lang po.Mabuhay!
Comments