Rivermaya - You'll Be Safe Here Chords & Tabs

 

You'll Be Safe Here Chords & Tabs

Rivermaya Chords & Tabs

Version: 2 Type: Bass Tab 0 ratings
1 star 2 stars 3 stars 4 stars 5 stars
comments

You'll Be Safe Here Bass Tab

intro:

g---------------------------|
d---------------------------|
a-2--------4----------------|
e-----2----------4---2---0--|

verses:
g----------------------------------------|
d----------------------------------------|
a-4-4-2-4----- 2x then--4-4-2-4----------|
e----------4-2------------------4-2-0----|
[ Tab from: http://www.guitartabs.cc/tabs/r/rivermaya/youll_be_safe_here_btab_ver_2.html ]
chorus:
g----------------------------------------|
d----------------------------------------|
a-2-2-2-2----------4--4-4----------------|
e---------2--2-2----------0--0-0---------|

bridge:
g-----------------------------------------------------|
d-----------------------------------------------------|
a-2-2-2-2-2-2-2-2-------------------------------------|
e---------------------2-2-2-2-2--2-4--5-5-5-5-5-5-5-5-|

g------------------------------------------------|
d------------------------------------------------|
a------------------------------------------------|
e-4-4-4-4-4-4---3-3-3-3-3-3-3--2-2-2-2-2-2-2-2-2-|
Comments