Rivermaya - Umaaraw Umuulan Chords & Tabs

 

Umaaraw Umuulan Chords & Tabs

Rivermaya Chords & Tabs

Version: 1 Type: Bass Tab

Umaaraw Umuulan Bass Tab

song tittle:umaaraw,umuulan
artist:rivermaya
tabbed by:ianlloydrosales
"this song goes to all history majors of R.T.U,especially sa "teodoro zaide"
and to ms.MANILYN SORIANO..



intro:la muna bass dun sa intro..pasok muna ung kanta..then used this tab

g|--------------------|-------------------------|
d|--------------------|-------------------------|
a|--------------------|-------------------------|
e|--2-2-222/9-99-7-77-|-/10-10-1010101010101010-|
 ..........................ng halik ng kamalasan

verse:
g|-------------------|-------------------------------|-------------------|
d|-------------------|-------------------------------|-------------------|
a|-------------------|-------------------------------|--9-9-99999999-9-9-|
e|--5-5-55555555-5-5-|-/12-12-1212121212121212-12-12-|-------------------|
  ginapang mong............para lamang ma-kidlatan


g|-------------------------------|
d|-------------------------------|
a|-------------------------------|
e|--10-10-1010101010101010-10-10-|
   sa kaitaas-taasan,ngunit....
[ Tab from: http://www.guitartabs.cc/tabs/r/rivermaya/umaaraw_umuulan_btab.html ]
refain:
g|-------------------|-------------------|
d|-------------------|-------------------|
a|--7-7-777-9-999-99-|--5-5-5555-5555-55-|
e|-------------------|-------------------|
  kaibigan...........wag kng magpa2sindak
  kaibigan...........easy lang sa iyak..

chorus:

g|-------------------|-------------------------------|-------------------|
d|-------------------|-------------------------------|-------------------|
a|-------------------|-------------------------------|--9-9-99999999-9-9-|
e|--5-5-55555555-5-5-|-/12-12-1212121212121212-12-12-|-------------------|

g|-------------------------------|
d|-------------------------------|
a|-------------------------------|repeat this in the whole chorus paulit 
e|--10-10-1010101010101010-10-10-|ulit lang naman to eh..

verse 2:ganun ulit parang sa chorus
refrain 2:used the refrain 1
adlib:used chorus tab:
outro:parang sa chorus din..


"that's all mga pare..hope na makatulong e2ng tab na ito sa inyo..
"comments??question??just send me message in friendster at 

-plZ.rAte thiS tab..-