Rivermaya - Posible Chords & Tabs

 

Posible Chords & Tabs

Rivermaya Chords & Tabs

Version: 1 Type: Tab

Posible Tab

   
this is tab is dedicated to all students af taritz!! (st,Rita college)
Especialy to all seniorez! batch 2005- 06
Graduating na tayo!!!
this will be our theme song!!

Tabed: by punXz! 


tuning: standard

Intro:(feed back)

C(matagal yan!)
e|--------------|
B|--------------|
G|---5----------|
D|---5----------|(listen to number of strumming)
A|---3----------|
E|--------------|


Guitar 2

e|-------------|
B|-------------|
G|-----------12|
D|---10h12-10--|
A|-------------|
E|-------------|

Verse
    C   F
e|-------------|
B|-------------|
G|--5---3------|
D|--5---3------|
A|--3---1------|
E|-------------|

  C
Posible kayang labanan
                 F
Ang agos ng paghamon
   C             
Mabuwal at madapa man
  F                
Sabay tayong aahon

  C
Posible kayang mabura
                 F
Alinlangan sa sarili
              A          G
Ang tapang sa loob makikita
F                          A# _
Taglay mo ang dugong bayani    |
    A#                         |
e|------------------|          |
B|------------------|          |
G|------------------|      <---
D|--8-8-8-8-8--XX---| x2 
A|--8-8-8-8-8--XX---|
E|--6-6-6-6-6--XX---|


Chorus:(dapat matatag kamay mo! pero posible yun dahil un ang title ng song)
     C   F/C
e|--------------|
B|--------------|
G|---5----------| 
D|---5---5------|
A|---3---3------|
E|-------1------|


C                            F/C 
Sulong!, laban, 'wag uurong!
C                       
Pakinggan sa iyong puso
                             F/C
Ang sigaw na datišy bulong

POSIBLE!!

Verse 2:
C
Posible kayang matikman
                     F
Tamis ng gintong minimithi
C                        
Sa kagat ng bawat laban
    F                  
Magtatagumpay kang 


    A#                         
e|------------------|          
B|------------------|          
G|------------------|      
D|--8-8-8-8-8--XX---| x2 
A|--8-8-8-8-8--XX---|
E|--6-6-6-6-6--XX---|
MULI!
[ Tab from: http://www.guitartabs.cc/tabs/r/rivermaya/posible_tab.html ]
C                            F/C 
Sulong!, laban, 'wag uurong!
C                       
Pakinggan sa iyong puso
                             F/C
Ang sigaw na datišy bulong

POSIBLE!!


Guitar2
e|------------------------------------------------|
B|------------------------------------------------|
G|------------------------------------------------|
D|-------------9-10-10-----12-12------------------|
A|------7-8-10--------------------10-10-----------|
E|-8-10-------------------------------------------|

e|------------------------------------------------|
B|------------------------------------------------|
G|-------------------------12-12-10---12-12-------|
D|------------8-10------------------10------10----|
A|------4-6-7-------------------------------------|
E|-5-7--------------------------------------------|

Chorus:

C                            F/C 
Sulong!, laban, 'wag uurong!
C                       
Pakinggan sa iyong puso
                             F/C
Ang sigaw na datišy bulong

C                        F/C
Sulong, laban, pilipino
C                        
Pakinggan sa iyong puso
                     F/C
Ang sigaw na datišy bulong
 C - F/C
Posible
 C - F/C
POSIBLE!!

Guitar2
e|------------------------------------------------|
B|------------------------------------------------|
G|------------------------------------------------|
D|-------------9-10-10-----12-12------------------|
A|------7-8-10--------------------10-10-----------|
E|-8-10-------------------------------------------|

e|------------------------------------------------|
B|------------------------------------------------|
G|-------------------------12-12-10---12-12-------|
D|------------8-10------------------10------10----|
A|------4-6-7-------------------------------------|
E|-5-7--------------------------------------------|

C - F/C
Posible
 C - F/C
POSIBLE!!

Wohoohoohoohoohoo
howow!!

End C

Drum Roll


If there any violent reaction pls Contact me!
09225475022

Good Luck Batch 2005-06