Rivermaya - Liwanag Sa Dilim Chords & Tabs

 

Liwanag Sa Dilim Chords & Tabs

Rivermaya Chords & Tabs

Version: 5 Type: Tab 0 ratings
1 star 2 stars 3 stars 4 stars 5 stars
comments

Liwanag Sa Dilim Tab

   
Tabbed by: Errol (erpol) Sarte
Email:errolsarte@yahoo.com


     HI SA BAND MATES KO! O AYAN ITINAB KO NA KAHIT NAKAKAPAGOD.GOODLUCK NA LANG PRE SA
ATIN...KAHIT MAY FISCAL CRISIS!......KUNG MAY MGA PROBLEMA SA TABS KO, SEND ME AN EMAIL
NA LNG O KAYA IRATE NIYO. PERO SA TINGIN KO OK NMAN 2 PAGTINUTUGTOG NAMIN NG BANDA.

Tablature Legend:
h   - hammer-on
p   - pull-off
b   - bend
/\ - slide into or out of (from/to "nowhere")
S   - shift slide


1st Intro ;( acoustic) B---G# (4x)
E ------66----------6----------------|
B ------66----------6----------------|
G -----------------------------------|
D ---3-----3-3-5\6----5\3------------| 2x
A ----------------------6~-----------|
E -----------------------------------|

2nd Intro ;( Electric) B-G# 
E -----------------------------------------------------------|      
B -----------------------------------------------------------|   
G --8\7-----8\7-----8\7--------------------------------------|(3x)   
D -------8-------6-------8--3--5--6--------------------------|               
A --6\5--8--6\5--6--6\5--8--3--5--6--------------------------|   
E -------6-------4-------6--1--3--4--------------------------|

E -----------------------------------------------|      
B -----------------------------------------------|   
G --8\7-----8\7----------------------------------|   
D -------8-------6---5----6----------------------|   
A --6\5--8--6\5--6---5----6----------------------|   
E -------6-------4---3----4----------------------|

VERSE I (B---G#4x)

REFRAIN I
  A|--b10-8~--b10-8-b5-3~---|
  E|------------------------|    
Gm                    G#
      Ikaw ang magsasabing....       
 
  A|--b10-8~----|
  E|------------|  
Gm                             G#
      Tulad ng isang tanglaw...

CHORUS
                                            
E ----------------------------------|    
B ----------------------------------|   
G --8\7-----8\7-----8\7-------------| (2x)
D -------8-------6-------8--3--5--6-|   
A --6\5--8--6\5--6--6\5--8--3--5--6-|   
E -------6-------4-------6--1--3--4-|
           Isigaw mo sa hangin...





(Electric 2nd intro)                                     riff
E ------------------------------------|      
B ------------------------------------|   
G --8\7-----8\7-----8\7---------------|   
D -------8-------6-------8--3--5--6---|   
A --6\5--8--6\5--6--6\5--8--3--5--6---|   
E -------6-------4-------6--1--3--4---|         
A|--/8-10-10b11~--|

Verse II (verse chords) bass and drums only
      
      At sa paghamon mo
      sa agos ng ating kasaysayan...
      
REFRAIN II (refrain chords)
       A|--b10-8~--b10-8-b5-3~---|
       E|------------------------|    
Gm                    G#
     Ikaw ang aawit ng....       
 
  A|--b10-8~----|
  E|------------|  
Gm                             G#
     Isang panalangin sa...


Repeat CHORUS

SOLO ( I don't know if it sounds right to you, basta ako alam ko ok to, I had tried
the other tab versions of this song pero sa tingin ko mas ok parin to. Try nyo nlng.)

|-11p10----13p11p1011p10----13p11p10-15p10----|
|-------11----------------11-------11-------11-|
|----------------------------------------------|
|----------------------------------------------|
|----------------------------------------------|
|----------------------------------------------|


|---------10-11p10----13p11p10-11p10---13p11p10-11p10----|
|------11----------11----------------11---------------11-|
|-10h12--------------------------------------------------|
|--------------------------------------------------------|
|--------------------------------------------------------|
|--------------------------------------------------------|
[ Tab from: http://www.guitartabs.cc/tabs/r/rivermaya/liwanag_sa_dilim_tab_ver_5.html ]
|--------------------------------------------------------|
|--------------------------------------------------------|
|--10S12-------------------12S10-10--12S10-10--12S10-10--|
|--------10S12-------------------------------------------|
|--------------8S10--------------------------------------|
|-------------------8S10-6-------------------------------|



|-11p10----13p10----11p10----13p10----15p10----|
|-------11-------11-------11-------11-------11-|
|----------------------------------------------|
|----------------------------------------------|
|----------------------------------------------|
|----------------------------------------------|


|---------10-11p10----13p10----11p10----13-10----|
|------11----------11-------11-------11-------11-|
|-9h11-------------------------------------------|
|------------------------------------------------|
|------------------------------------------------|
|------------------------------------------------|

**This part is where Michael did a fret board tapping technique. I "guess" this is
almost 100% correct. What Michael was doing on the video was real and I have tried it.

     T      T      T      T
|---s10----s10----s10---s10---------|  
|---s8-----s8-----s8----s8----------| (2x)
|---s7-----s7-----s7----s7----------|
|-----------------------------------|
|-----------------------------------|
|-----------------------------------|

     T      T      T      T
|---s11----s11----s11---s11----------|  
|---s9-----s9-----s9----s9-----------| (2x)
|---s8-----s8-----s8----s8-----------|
|------------------------------------|
|------------------------------------|
|------------------------------------|

 **OR TRY THIS NEXT PART. I'm sure this is the same with what Michael had have done
in the video. (dapat nga lng ay may isa pang gitara)
  
       GUITAR 1                       GUITAR 2
   T   T    T   T       T	             T          T
|------------------------------|   |-/10(8x)---/11(8x)-----|
|--/8--/8--/8--/8-(4x)-/9(8x)--|   |-/11(8x)---/13(8x)-----|
|--/7--/7--/7--/7-(4x)-/8(8x)--|   |-/12(8x)---/13(8x)-----|
|------------------------------|   |-----------------------|
|------------------------------|   |-----------------------|
|------------------------------|   |-----------------------|

THEN...


|--------------------------18p15-------------------------------------|
|--------------------15h18-------15h16p15-18p15----15b16r15b16r15----|
|--15h17p15h17p15h17----------------------------17----------------15-|
|--------------------------------------------------------------------|
|--------------------------------------------------------------------|
|--------------------------------------------------------------------|


CHORUS (the chorus chords in this part are now different)
        Bb               Cm                                 
      Isigaw mo sa hangin
                              G#            F
      tumindig at magsilbing liwanag, liwanag sa dilim
       Gm	
      Harapin mong magiting
       G#                     Gm         G# pause
      Itong bagong awitin ikaw ang liwanag!


CHORUS 
        Bb               Cm                                 
      Isigaw mo sa hangin
                              G#            F
      tumindig at magsilbing liwanag, liwanag sa dilim
       Gm	
      Harapin mong magiting
       G#                     Gm         G#
      Itong bagong awitin ikaw ang liwanag sa dilim...

   E ------------------------------------|    
   B ------------------------------------|   
   G -------8\7-----8\7------------------| (2x)
   D ----8-------6-------8--3--5--6------|   
   A ----8--6\5--6--6\5--8--3--5--6------|   
   E ----6-------4-------6--1--3--4------|

      Ooh ohh...                   liwanag sa dilim... ohh...
 

E -------------------------------|      
B -------------------------------|   
G --8\7--------------------------|   
D -------8-----------------------|   
A --6\5--8-----------------------|   
E -------6-----------------------|


****Fin.
Comments