Rivermaya - Liwanag Sa Dilim Chords & Tabs

 

Liwanag Sa Dilim Chords & Tabs

Rivermaya Chords & Tabs

Version: 2 Type: Bass Tab 0 ratings
1 star 2 stars 3 stars 4 stars 5 stars
comments

Liwanag Sa Dilim Bass Tab

   
LIWANAG SA DILIM - RIVERMAYA
-------------------------------------------------------------------------------

Tabbed By : Jonemerl Amon a.k.a DAMAL
e-mail: vash_stampede2126@yahoo.com

Tuning:standard

2 beses n intro muna ng acoustic guitar

intro
G|---------------------------------------------------------------------------|
D|-------------------12-10-8------------------12-10-8------------------------|
A|-------8-8-10-11-----------------8-8-10-11-------------------8-8-10-11-----|
E|--8------------------------8--------------------------8--------------------|

G|---------------------------------------------------------------------------|
D|--12-10-8------------------------------------------------------------------|
A|------------------8-8-10-11------------------------------------------------|
E|----------8----------------------------------------------------------------|

G|---------------------------------------------------------------------------|
D|---------------------------------------------------------------------------|
A|--6-5----6-5----6-5-------8-10-11-----6-5----6-5-----------10-10-10-11-----|
E|------6------4------6---------------------6------4-------------------------|
verse 1

G|---------------------------------------------------------------------------|
D|-------------------12-10-8-------------------12-10-8-----------------------|
A|--------8-8-10-11------------------8-8-10-11------------------8-8-10-11----|
E|--8------------------------8-------------------------8---------------------|
[ Tab from: http://www.guitartabs.cc/tabs/r/rivermaya/liwanag_sa_dilim_btab_ver_2.html ]
G|---------------------------------------------------------------------------|
D|--12-10-8--------------------12-10-8----------------------12-10-8----------|
A|------------------9-8-10-11--------------------8-8-10-11-------------------|
E|-----------8--------------------------8----------------------------8-------|

G|---------------------------------------------------------------------------|
D|---------------------------------------------------------------------------|
A|--8-8-10-11----------------------------------------------------------------|
E|---------------------------------------------------------------------------|
chorus

G|---------------------------------------------------------------------------|
D|---------------------------------------------------------------------------|
A|-6-5---6-5---6-5---8-10-11--6-5---6-5---6-5----8-10-11--6-5---6-5---6-5----|
E|-----6-----4-----6--------------6-----4-----6---------------6-----4-----6--|

G|---------------------------------------------------------------------------|
D|---------------------------------------------------------------------------|
A|-8-10-11-------------------------------------------------------------------|
E|---------------------------------------------------------------------------|

sa verse 2, gawin nio lng ulit ung sa verse 1
sa adlib nmn(ung lead) gawin nio lng ung chorus o kung gus2 nio mg-adlib dn 
e di mg-adlib kau

===============================================================================

hi nga pla sa lahat ng nakakakita sa tab na to... sana ma-enjoy nio!!!

binabati ko nga lng po pla ung lahat ng rakista ng makati science...

sa lahat ng c2... jerem...jm...allen...ryan...aljay...von...alvin...paeng...paul..

pti n rn c karl... wohooh!!!

hi rn sa lahat ng bsp... hoi jm... gawa ka rn ng bass tabs mo ng alumni tpos 

post mo rn... wakekekek!!!!!!

ello dn sa banda ng benigno... matthew, joseph, reuel pti ung ibang ndi ko po

kilala...

ung prisipe nga rn pla nmen pti sa buong kaharian na pa2loy lumalaki...

c2 rules!!!
Comments