Rivermaya - Kung Ayaw Mo Huwag Mo Chords & Tabs

 

Kung Ayaw Mo Huwag Mo Chords & Tabs

Rivermaya Chords & Tabs

Version: 1 Type: Tab 0 ratings
1 star 2 stars 3 stars 4 stars 5 stars
comments

Kung Ayaw Mo Huwag Mo Tab

   
SONG: Kung Ayaw Mo: Huwag Mo
BAND: Rivermaya

Standard Tuning: (EBGDAE)

LEGEND:
   b = break
   ) = let ring
   / = slide forward
   \ = slide backward

MESSAGE:
   I bring to you another one of Rivermaya's Best...

Stanza:

GUITAR 1
E---------------------------
B---------------------------
G---------------------------
D---------------------------
A---0-0-0-0-0-0-0-0---------
E---------------------------

*Repeat 4x, but after repeating stanza, play 6x

GUITAR 1
E---------------------------------------
B---------------------------------------
G---------------------------------------
D---0-0-0-0-0-0-0-0---------------------
A-------------------2-2-2-2-2-2-2-2-----
E---------------------------------------

*GUITAR 2 with a little distortion and delay. The 
 tab below is played together with the tab above.
E---------------------------
B---3-3-3-3-0-0-0-0---------
G---2-2-2-2-1-1-1-1---------
D---------------------------
A---------------------------
E---------------------------

Repeat Stanza 2x
*GUITAR 1 ends with 0b.

Chorus:

GUITAR 1
E-----------------------------------------------------
B-----------------------------------------------------
G-----------------------------------------------------
D---2)-2b-2b-2b-------------0)-0b-0b----0-0-2-0-2-0---
A---------------2)-2b-2b-2b----------2b---------------
E-----------------------------------------------------

*the tab below is played together with the tab above. Just look at the tab
       below to know where you would start.
[ Tab from: http://www.guitartabs.cc/tabs/r/rivermaya/kung_ayaw_mo_huwag_mo_tab.html ]
*GUITAR 2 with a little distortion and delay
E-------------------------------------------
B---3-3-3-4-3-4-3-----------3-3-3-4-3-4-3---
G-------------------------------------------
D-------------------------------------------
A-------------------------------------------
E-------------------------------------------

*Repeat Chorus 4x; but on the last time, guitar 1 ends with 0).
After which, guitar 2 repeats his part in stanza 1 time.

Back to Stanza
Then to Chorus

Interlude: *(the two guitars answers each other here)

*GUITAR 2 with a little distortion and delay
E-------------------------------------------
B---2/3\2--------------2/3\2----------------
G--------2)-----------------2)--------------
D-------------------------------------------
A-------------------------------------------
E-------------------------------------------

*GUITAR 1 with a little distortion
E------------------------------------1)-----
B------------2/3\2--------------2/3)--------
G------------------1)-----------------------
D-------------------------------------------
A-------------------------------------------
E-------------------------------------------

Repeat Interlude 2x
Back to Chorus

Breakdown:

GUITAR 2 with a little distortion and delay
E----------------
B---2/3\2--------
G--------2)------  Repeat 4x
D----------------
A----------------
E----------------

for GUITAR 1
E-----------------------------------------------------
B-----------------------------------------------------
G-----------------------------------------------------
D---2)-2b-2b-2b-------------0)-0b-0b----0-0-2-0-2-0---
A---------------2)-2b-2b-2b----------2b---------------
E-----------------------------------------------------

Yeh, I know this song is kinda' old, but as they say, "SONGS NEVER FADE..."

Comments? Suggestions? DONATIONS? ;)
stereo_pump@swirve.com is the place to be!!!
Comments