Rivermaya - Kisapmata Chords & Tabs

 

Kisapmata Chords & Tabs

Rivermaya Chords & Tabs

Version: 4 Type: Tab 0 ratings
1 star 2 stars 3 stars 4 stars 5 stars
comments

Kisapmata Tab

Kisapmata Solo
Artist: Rivermaya
Tabbed by: Rommel Manzano

Do this with some Delay, chorus with a little Limiter.
|---------------------------------------------|
|----------------Sorry------------------------|
|-------I-Don?t-know-the-first-part-----------|
|------------with-high-delay------------------|
|----------I?ll-tab-it-soon-------------------|
|---------maraming-effects-eh-----------------|

The remaining goes this way:

|------------------2-2--2-2-3-3s5----------------|
|----3-3-----5-5---------------------------------|
|--2-----2-2-----2-------------------------------|
|-----------------------------do-this-w/-rhythm--|
|-----------------------------&-the-chorus-tabs--|
|------------------------------------------------|

|-------------------12p10s9-10p9?2h3-3-2h3-3-----|
|----3-3-----5-5---------------------------------|
|--2-----2-2-----2-------------------------------|
|------------------------------do-this-w/-rhythm-|
|-----------------------------&-the-chorus-tabs--|
|------------------------------------------------|

Now for the last solos:
[ Tab from: http://www.guitartabs.cc/tabs/r/rivermaya/kisapmata_tab_ver_4.html ]
|-14-14-14-14-14-14-12-12-12-12-12-12-|
|-------------------------------------|
|-------------------------------------|
|-------------------------------------|      any comments, mail me. . .
|-------------------------------------|       jrcmanzano@yahoo.com
|-------------------------------------|           9164482742

|-14-14-14-14-14-14-15-15-15-15-15-15-|
|-------------------------------------|
|-------------------------------------|        Filipino TABS
|-------------------------------------|         are the best!
|-------------------------------------|
|-------------------------------------|

|-14-14-14-14-14-14-12-12-12-12-12-12-|
|-------------------------------------|
|-------------------------------------|
|-------------------------------------|
|-------------------------------------|
|-------------------------------------|

|-12-12--17--12--17-----17-17-17---12-10--|
|-----------------------------------------|
|-----------------------------------------|
|-----------------------------------------|
|-----------------------------------------|
|-----------------------------------------|
Comments