Rivermaya - Kisapmata Chords & Tabs

 

Kisapmata Chords & Tabs

Rivermaya Chords & Tabs

Version: 2 Type: Tab 1 rating
1 star 2 stars 3 stars 4 stars 5 stars
comments

Kisapmata Tab

   
KISAPMATA
Rivermaya

johnsantos_17@yahoo.com

Standard tuning (EADGBE)

I.Intro
Gtr. 2 – (DEmAG) 
(do it after the first pause of Gtr. 1)

(Repeat 2x)

Gtr. 1

E----------5-*-------------------------------5-*----5--------------------
B------3-----------3-----3---------------3----------------------------------
G--2------------2-----2-----2--0-*--2-----------2-------2----0*----------
D-----------------------------------------------------------------------------
A-----------------------------------------------------------------------------
E-----------------------------------------------------------------------------

*-Pause

II.Verse

Gtr. 2- same as Intro

Gtr. 1-play this on the start of the 3rd line of the song. 

E--------------------------------------------------3-----------------------
B------3-----3-----3-----3-----3-------------3--------------------------
G--2-----2-----2-----2-----2-----2---0--0------------------------------
D--------------------------------------------------------------------------
A--------------------------------------------------------------------------
E--------------------------------------------------------------------------

III.Chorus
Gtr. 2  (DEmAG)

Gtr. 1

E--------------2------------|-----------0-------|------------0---------|------------3-------------|
B-------3---------3---------|------0-------0----|-------2-------2------|------2--------2----------|
G----------2---------2------|--------0-------0--|---------2--------2---|---------0--------0-------|
D---0-------------------0---|--2----------------|---2------------------|--0------------------------|
A---------------------------|--2----------------|---0------------------|--2------------------------|
E---------------------------|-------------------|--------------- ------|-3-----------------------|

Repeat 4 times

 
IV.Interlude:
Gtr. 2 – same as Intro

Gtr. 1
E-------5*-----------------------------5*----------5----------------------
B----3---------3-----3-------------3----------3----------------------------
G-2--------2-----2-----2--0*--2----------2-----------2---0*-------------
D----------------------------------------------------------------------------
A----------------------------------------------------------------------------
E----------------------------------------------------------------------------

V.Verse
-the same as the first verse. 

VI. Chorus
-the same as the first chorus.

VII.Adlib
Gtr. 2  (DEmAG)

Gtr. 1

E--14-p-10--10-sl\-5-5-5-5--------------------------------
B-------------------------------8-8-8-8-sl/-12-10----------
G--------------------------------------------------------------
D--------------------------------------------------------------
A--------------------------------------------------------------
E--------------------------------------------------------------
[ Tab from: http://www.guitartabs.cc/tabs/r/rivermaya/kisapmata_tab_ver_2.html ]
E--------------------------------------------------------10--10-10-10--sl/-14-
B-8---8-8h10p8--8h10p8--8h10p8--8h10p8--8---8---8--8---8----------------------
G-----------------------------------------------------------------------------
D-----------------------------------------------------------------------------
A-----------------------------------------------------------------------------
E-----------------------------------------------------------------------------

E—14p10--10-sl\-5-5-5-5-----------------------------------
B------------------------------8-8-8-8-sl/-12-10-sl\-8----
G---------------------------------------------------------
D---------------------------------------------------------
A---------------------------------------------------------
E---------------------------------------------------------

E------------------------------------------------------------
B--8-8h10p8---5h7p5---3h5p3---2h3p2--------------------------
G----------------------------------------------4*---4-4-sl/-2
D------------------------------------------------------------
A------------------------------------------------------------
E------------------------------------------------------------


E-------------------------------------------------------------------------
B-------------------------------------------------------------------------
G-2--2-sl/-7-7-sl\-2--2-sl/-9-9-sl\-2-2-sl/-11--11-14-12---12h14p12--11~--
D-------------------------------------------------------------------------
A-------------------------------------------------------------------------
E-------------------------------------------------------------------------

E----------------------------------12-12---12-12p10-9-10-9-10-sl/--2-3~---
B-------------------------------------------------------------------------
G-11-sl/-2--2-sl/-7--7-sl/-14---------------------------------------------
D-------------------------------------------------------------------------
A-------------------------------------------------------------------------
E-------------------------------------------------------------------------

VIII.Outro
Gtr. 2- DEmAG 

Gtr. 1
E--14-14-14-14-14-14-14----12-12-12-12-12-12-12---14-14-14-14-14-14-14-----
B--------------------------------------------------------------------------
G--------------------------------------------------------------------------
D--------------------------------------------------------------------------
A--------------------------------------------------------------------------
E--------------------------------------------------------------------------

E--15-15-15-15-15-15-15---14-14-14-14-14-14-14---12-12-12-12-12-12-12------
B--------------------------------------------------------------------------
G--------------------------------------------------------------------------
D--------------------------------------------------------------------------
A--------------------------------------------------------------------------
E--------------------------------------------------------------------------

E--10---17-17-17-17-17-----17-----17----17---17---17---17------------------
B----------------------------15-----15--------15---15---15---15------------
G--------------------------------------------------------------------------
D--------------------------------------------------------------------------
A--------------------------------------------------------------------------
E--------------------------------------------------------------------------

End: G

=====¤w&_17=====
Comments