Rivermaya - Kisapmata Chords & Tabs

 

Kisapmata Chords & Tabs

Rivermaya Chords & Tabs

Version: 1 Type: Bass Tab

Kisapmata Bass Tab



Intro:

G|-------------------------------|
D|-------------------------------|
A|-5-5-----2-2-------------------|
E|-----2-2-----4-4---------------|

G|-------------------------------|
D|-------------------------------|
A|-5-5-----222-------------------|
E|-----2-2-----04----------------|

Verse 1:

G|-------------------------------|
D|-------------------------------|
A|-5-5-----2-2-------------------|
E|-----2-2-----4-4---------------| 3x

G|-------------------------------|
D|-------------------------------|
A|-5-5-----222-------------------|
E|-----2-2-----04----------------|

Chorus:

G|--------------------------------------------|
D|--------------------------------------------|
A|---------0555------0222---------------------|
E|-4s7-6-5------0222------0444----------------|

G|-----------------------------------|
D|-----------------------------------|
A|-0555------0222--------------------|
E|------0222-----0444----------------| 2x

G|-------------------------------------|
D|-------------------------------------|
A|-0555------02222---------------------|
E|------0222------00004----------------|

Intro:

G|-------------------------------|
D|-------------------------------|
A|-5-5-----2-2-------------------|
E|-----2-2-----4-4---------------|

G|-------------------------------|
D|-------------------------------|
A|-5-5-----222-------------------|
E|-----2-2-----04----------------|

Verse:

G|-------------------------------|
D|-------------------------------|
A|-5-5-----2-2-------------------|
E|-----2-2-----4-4---------------| 3x

G|-------------------------------|
D|-------------------------------|
A|-5-5-----222-------------------|
E|-----2-2-----04----------------|

Chorus:

G|--------------------------------------------|
D|--------------------------------------------|
A|---------0555------0222---------------------|
E|-4s7-6-5------0222------0444----------------|
[ Tab from: http://www.guitartabs.cc/tabs/r/rivermaya/kisapmata_btab.html ]
G|-----------------------------------|
D|-----------------------------------|
A|-0555------0222--------------------|
E|------0222-----0444----------------| 2x

G|-------------------------------------|
D|-------------------------------------|
A|-0555------02222---------------------|
E|------0222------00004----------------|

Bridge:

G|----------------------------------------------------|
D|----------------------------------------------------|
A|-05555555----------02222222-------------------------|
E|----------02222222----------04444444----------------| 3x

G|-----------------------------------------------------|
D|-----------------------------------------------------|
A|-05555555----------02222-----------------------------|
E|----------02222222-------00004-----------------------|

Verse:

G|-------------------------------|
D|-------------------------------|
A|-5-5-----2-2-------------------|
E|-----2-2-----4-4---------------| 3x

G|-------------------------------|
D|-------------------------------|
A|-5-5-----222-------------------|
E|-----2-2-----04----------------|

Chorus:

G|--------------------------------------------|
D|--------------------------------------------|
A|---------0555------0222---------------------|
E|-4s7-6-5------0222------0444----------------|

G|-----------------------------------|
D|-----------------------------------|
A|-0555------0222--------------------|
E|------0222-----0444----------------| 2x

G|-------------------------------------|
D|-------------------------------------|
A|-0555------02222---------------------|
E|------0222------00004----------------|

Outro:

G|----------------------------------------------------|
D|----------------------------------------------------|
A|-05555555----------02222222-------------------------|
E|----------02222222----------04444444----------------| 3x

G|-------------------------------------------------------------|
D|-------------------------------------------------------------|
A|-05555555----------0-2-2-2-------------0-2-2-----------------|
E|----------02222222---------0-0-0-0-4-4-------0-2-------------|







pag may mali.. kayo na bhala...