Rivermaya - If Chords & Tabs

 

If Chords & Tabs

Rivermaya Chords & Tabs

Version: 1 Type: Tab 0 ratings
1 star 2 stars 3 stars 4 stars 5 stars
comments

If Tab

   

Artist: Rivermaya
Song: If
Tabbed By: Gadasher (GCF_14)
Email: feander_14@yahoo.com
Tuning: EADGBE

                   Guys, try nyo lng  ang tabs nato bcoz
               I am 99% sure of this one.So try nyo lng at please
                           PAKI-RATE NA LANG!!.



Intro:

    A    A7        D     G      A     A7          D     G
E|---------------------------------------------------------------|
B|--------------0------------------------------0-----------------|
G|-----2-----0--------2-----0------2-----0-----------2-----3-----|
D|-----------------0------------------------2-----0--------------|
A|--0-----0---------------------0-----0--------------------------|
E|-----------------------3------------------------------3--------|

Verse:

     A                  A7            D                     G
E|-------------------------------------------------------------------------|
B|-------------------------------------------------------------------------|
G|----------------------6-------------7------------------------------------|
D|---7------------------5-------------7---------------------5--------------|
A|---7------------------7-------------5---------------------5--------------|
E|---5------------------5-----------------------------------3--------------|
  If I could choose to live my life there'll be no if's to say........
[ Tab from: http://www.guitartabs.cc/tabs/r/rivermaya/if_tab.html ]
     A                  A7              D                      G
E|-------------------------------------------------------------------------|
B|-------------------------------------------------------------------------|
G|----------------------6---------------7----------------------------------|
D|---7------------------5---------------7----------------------5-----------|
A|---7------------------7---------------5----------------------5-----------|
E|---5------------------5--------------------------------------3-----------|
  If I would choose to hold your hand there'll be no words to say........

Chorus:

            A                A7              D                  G
E|-------------------------------------------------------------------------|
B|-------------------------------------------------------------------------|
G|---------------------------6---------------7-----------------------------|
D|----------7----------------5---------------7------------------5----------|
A|----------7----------------7---------------5------------------5----------|
E|----------5----------------5----------------------------------3----------|
  Without thought, without pride leave the things that seem to weaken us..

           A                 A7           D               G
E|-------------------------------------------------------------------------|
B|-------------------------------------------------------------------------|
G|---------------------------6------------7--------------------------------|
D|---------7-----------------5------------7---------------5----------------|
A|---------7-----------------7------------5---------------5----------------|
E|---------5-----------------5----------------------------3----------------|
  Without fears, leave your lies let the magic turn your life around....


Verse 2: DO VERSE 1 CHORDS/TABS

If would choose to touch you there
Will you touch me there too
And if you choose to stay with me
Ill spend my life with you

Chorus: DO VERSE 1 CHORDS/TABS




..............................THAT'S ALL.................................
Comments