Rivermaya - Hinahanap Hanap Kita Chords & Tabs

 

Hinahanap Hanap Kita Chords & Tabs

Rivermaya Chords & Tabs

Version: 2 Type: Bass Tab 0 ratings
1 star 2 stars 3 stars 4 stars 5 stars
comments

Hinahanap Hanap Kita Bass Tab

Song Title: Hinahanap-hanap Kita
Artist: Rivermaya
Tuning: EADG
Tabbed by: Paolo (rage_punks@yahoo.com)

Intro:

G|-------------------------|
D|-------------------------|
A|--------------/12--------|
E|----6----5---------------|

Verse 1:

G|-------------------------------------|
D|-------055------5------055-----3-----|
A|------------3h5---5---------3h5-5----|
E|----3---------------3-------------0--|

G|------------------------------------------077-----7---------------------|
D|----2/5h4------------------077-----7----------5h7--------055------------|
A|---------5---------------------5h7---0-5------------0-------------------|
E|-----------00-22-33-\77-5-----------------------------3-------6----5----|

G|-------------------------------------|
D|-------055------5------055-----3-----|
A|------------3h5---5---------3h5-5----|
E|----3---------------3-------------0--|

G|--------------------------------------------------------------------------------------|
D|----2/5h4------------------077-----7------077-----7-------------------10/12-10--------|
A|---------5---------------------5h7------------5h7---0-5-5h7-7-9h10h12----------\10----|
E|-----------00-22-33-\77-5------------0-5----------------------------------------------|

Chorus:

G|-------------------------------------|
D|-------055------5------055-----3-----|
A|------------3h5---5---------3h5-5----|
E|----3---------------3-------------0--|

G|--------------------------------------------------------------------------|
D|----2/5h4------------------077-----7------44-5-77-----055-----44-55-77----|
A|---------5---------------------5h7---0-5-------------------55-------------|
E|-----------00-22-33-\77-5--------------------------3----------------------|

G|-------------------------------------|
D|-------055------5------055-----3-----|
A|------------3h5---5---------3h5-5----|
E|----3---------------3-------------0--|

G|----------------------------------------------------------|
D|----2/5h4------------------077-----7------------/12-------|
A|---------5---------------------5h7---0-5---------------5--|
E|-----------00-22-33-\77-5---------------------------------|

Verse 2:

G|-------------------------------------|
D|-------055------5------055-----3-----|
A|------------3h5---5---------3h5-5----|
E|----3---------------3-------------0--|

G|------------------------------------------077-----7-----------------------------|
D|----2/5h4------------------077-----7----------5h7--------055----8---8--7---7----|
A|---------5---------------------5h7---0-5------------0---------------------------|
E|-----------00-22-33-\77-5-----------------------------3-----------6------5---5--|

G|-------------------------------------|
D|-------055------5------055-----3-----|
A|------------3h5---5---------3h5-5----|
E|----3---------------3-------------0--|

G|--------------------------------------------------------------------------------------|
D|----2/5h4------------------077-----7------077-----7-------------------10/12-10--------|
A|---------5---------------------5h7------------5h7---0-5-5h7-7-9h10h12----------\10----|
E|-----------00-22-33-\77-5------------0-5----------------------------------------------|

Chorus:

G|-------------------------------------|
D|-------055------5------055-----3-----|
A|------------3h5---5---------3h5-5----|
E|----3---------------3-------------0--|

G|--------------------------------------------------------------------------|
D|----2/5h4------------------077-----7------44-5-77-----055-----44-55-77----|
A|---------5---------------------5h7---0-5-------------------55-------------|
E|-----------00-22-33-\77-5--------------------------3----------------------|

G|-------------------------------------|
D|-------055------5------055-----3-----|
A|------------3h5---5---------3h5-5----|
E|----3---------------3-------------0--|

G|-----------------------------------------------------------|
D|----2/5h4------------------077-----7------------/12--------|
A|---------5---------------------5h7---0-5-------------------|
E|-----------00-22-33-\77-5----------------------------10----|
[ Tab from: http://www.guitartabs.cc/tabs/r/rivermaya/hinahanap_hanap_kita_btab_ver_2.html ]
Coda: (part 'to ni Rico Blanco)

G|-----------------------------------------------------------|
D|----------5----4-----------------------5h7----------5h7----|
A|---------5------7-----7----5------5------------------------|
E|----3----------------7------5----5------------6--5---------|

G|------------------------------------|
D|----055------5------055-----3-------|
A|---------3h5---5---------3h5-5------|
E|-----------------3-------------0----|

G|---------------------------------------------------------------|
D|----2/5h4------------------------------------------------------|
A|---------5------------------------5-5h7--7-6h7h9\12-10---------|
E|-----------00-22-33-\77-5--555--55----------------------/10----|

Ending parts: (the same w/ the chorus part but w/ some variations)

G|-------------------------------------|
D|-------055------5------055-----3-----|
A|------------3h5---5---------3h5-5----|
E|----3---------------3-------------0--|

G|--------------------------------------------------------------------------------|
D|----2/5h4------------------077-----7------44-5-77-----055----8---8--7---7-------|
A|---------5---------------------5h7---0-5----------------------------------------|
E|-----------00-22-33-\77-5--------------------------3-----------6------5---5-----|

G|-------------------------------------|
D|-------055------5------055-----3-----|
A|------------3h5---5---------3h5-5----|
E|----3---------------3-------------0--|

G|--------------------------------------------------------------------------------|
D|----2/5h4------------------077-----7------44-5-77-----055----8---8--7---7-------|
A|---------5---------------------5h7---0-5----------------------------------------|
E|-----------00-22-33-\77-5--------------------------3-----------6------5---5-----|

G|-------------------------------------|
D|-------055------5------055-----3-----|
A|------------3h5---5---------3h5-5----|
E|----3---------------3-------------0--|

G|--------------------------------------------------------------------------------|
D|----2/5h4------------------077-----7------44-5-77-----055----8---8--7---7-------|
A|---------5---------------------5h7---0-5----------------------------------------|
E|-----------00-22-33-\77-5--------------------------3-----------6------5---5-----|

G|-------------------------------------|
D|-------055------5------055-----3-----|
A|------------3h5---5---------3h5-5----|
E|----3---------------3-------------0--|

G|-------------------------------------------------|
D|----2/5h4------------------077-----7-------------|
A|---------5---------------------5h7---55555-------|
E|-----------00-22-33-\77-5-------------------3----|

Mga tol ung slide ng bass sa huli kyo na lng ang sumipra kasi iba-iba ang gngwa ko dyan.
Pti ung sa adlib part, ung p2sok uli ung lead ng gitara. Kyo na pti ang bhalang tumiming
ksi baka mali ung pgl2gay ko ng timing d2 sa tab.


This song nga pala is dedicated to Ms. Krista Guevarra(I love YOU!). Pki basa ng lyrics pls...
Here it goes...


Verse 1:

Addict sa'yo, awit sa akin
Nilang sawa na aking mga kwentong marathon

Tungkol sa'yo, at sa ligayang
Iyong hatid, sa aking buhay,
Tuloy ang bida sa isipan ko'y ikaw

Chorus:

Sa umaga't sa gabi, sa bawat minutong lumilipas
Hinahanap-hanap kita, hinahanap-hanap kita ah ha...

Sa isip at panaginip, bawat pagpihit ng tadhana
Hinahanap-hanap kita ah ha...

Verse 2:

Sabik sa'yo, kahit maghapon
Na tayong magkasama parang telesine

Ang ating ending, hatid sa bahay n'yo
Sabay gudnyt, sabay may kiss, sabay bye-bye

(Repeat Chorus)

Coda:

Pilit ko mang ika'y limutin
Lagi kong natatagpuan
Ang iyong tinig at awitin
Tuwing sasapit ang ulan

Pati lupang pinagsamahan
Mukha yatang limut na
Ang puso mong biglang lumisan
May kapiling ng iba... oohh...

(Repeat Chorus)

Sa school sa flag ceremony
Hanggang uwian araw-araw
Hinahanap-hanap kita, hinahanap-hanap kita ah ha...

At kahit pa magka-anak kayo't magkatuluyan balang araw
Hahanap-hanapin ka, hahanap-hanapin ka...


Rate my tab pls...!!! E-mail me at ska mga bassist dyan, kng may friendster kyo
i-add nyo nman ako (rage_punks@yahoo.com).
Comments