Rivermaya - Himala Chords & Tabs

 

Himala Chords & Tabs

Rivermaya Chords & Tabs

Version: 1 Type: Tab 0 ratings
1 star 2 stars 3 stars 4 stars 5 stars
comments

Himala Tab

   
Himala
by: Rivermaya
Album: Trip
Tabulated by: Leland Antonio

*Regular Tuning

Chords:

     D  D5 F#m  F   G   G6  Am
e|---2------2---1---3---3---5----|
B|---3------2---1---3---3---5----|
G|---2--7---2---2---4---0---5----|
D|---0--7---4---3---5---0---7----|
A|---0--5---4---3---5---2---7----|
E|----------2---1---3---3---5----|


Guitar 1 plays chords all throughout the song
Guitar 2 plays the intro riffs except first bar

Intro:
    D
e|-----5-----5-----5-----5----5------|
B|-------3-----3-----3---------------|
G|---------2-----2-----2----3--------|  2x
D|---0-------------------------------|
A|-----------------------------------|
E|-----------------------------------|

    F#m                            G                            D
e|------0-----0-----0-----0---0-------0----0-----0-----0---0------0-----0-----0-----0---0--|
B|--------3-----3-----3-----------------3----3-----3----------------3-----3-----3----------|
G|----------2-----2-----2---2------0------0----0-----0---0------------2-----2-----2---2----|
D|---4----------------------------------------------------------0--------------------------|
A|-----------------------------------------------------------------------------------------|
E|-----------------------------------------------------------------------------------------|

    D
e|-----0-----0-----0-----0----0------|
B|-------3-----3-----3---------------|
G|---------2-----2-----2----3--------|
D|---0-------------------------------|
A|-----------------------------------|
E|-----------------------------------|

Verse:
    F#m                            G                            D
e|------0-----0-----0-----0---0-------0----0-----0-----0---0------0-----0-----0-----0---0--|
B|--------3-----3-----3-----------------3----3-----3----------------3-----3-----3----------|
G|----------2-----2-----2---2------0------0----0-----0---0------------2-----2-----2---2----|
D|---4----------------------------------------------------------0--------------------------|
A|-----------------------------------------------------------------------------------------|
E|-----------------------------------------------------------------------------------------|

    D
e|-----0-----0-----0-----0----0------|
B|-------3-----3-----3---------------|
G|---------2-----2-----2----3--------|
D|---0-------------------------------|
A|-----------------------------------|
E|-----------------------------------|


Verse 1:
   F#m           G           D                D
Pangarap kong makita kang naglalaro sa buwan
  F#m        G          D                     D
Inalay mo sa akin ang gabing walang hangganan
F#m                  G            D           D
   Hindi mahanap sa lupa ang pag-asa
F#m                 G   (strum the G part instead of the riff)
   Nakiki-usap na lang
[ Tab from: http://www.guitartabs.cc/tabs/r/rivermaya/himala_tab.html ]
Chorus 1:
     D       G6                             F#m                       G6
Himala  Kasalanan bang (Kasalanan bang) humingi ako sa langit ng (Humingi sa langit ng)
           D       G6                           F#m                     G6
Isang himala  Kasalanan  bang (Kasalanan bang) humingi ako sa langit ng
           D    D  (do first bar of
isang himala           intro)


Verse 2:
   F#m           G         D                D
Pangarap kong makita ang liwanag ng umaga
   F#m          G          D                D
Naglalambing sa'yong mga mata
F#m                  G            D         D
   'Di mahagilap sa lupa ang pag-asa
F#m                  G
    Nakiki-usap sa buwan

Chorus 2:

     D       G6                             F#m                       G6
Himala  Kasalanan bang (Kasalanan bang) humingi ako sa langit ng (Humingi sa langit ng)
           D       G6                           F#m                     G6
Isang himala  Kasalanan  bang (Kasalanan bang) humingi ako sa langit ng
           D5   D5   D5------>
isang himala


Solo:
    Am*                    G                F
e|--5----------------------------------------------------------------------------------------|
B|---5-------------5-6-5------------------------------------7-sl-10--6---5-------------------|
G|----5------4-5-7---------7-5-4---4-5-7----5-4-------4-5-------------------7-5-4---5-4------|
D|-----7---7---------------------7--------------7-5-7-----------------------------7-----7-5--|
A|------7------------------------------------------------------------------------------------|
E|-------------------------------------------------------------------------------------------|

             Am      G                  F
e|------------8-7----8-sl-10--10-8-7---5--3--------------------8-------|
B|----------------8--------------------------5-sl-6--6--5--------------|
G|--------------------------------------------------------5--------5---|
D|--5-sl-7-------------------------------------------------------------|
A|---------------------------------------------------------------------|
E|---------------------------------------------------------------------|


*note: guitar 1 plays fill with guitar 2

fill:
    Am
e|--5------------|
B|---5-----------|
G|----5----------|
D|-----7---------|
A|------7--------|
E|-------5-------|


Chorus 3:
     D       G6                             F#m                       G6
Himala  Kasalanan bang (Kasalanan bang) humingi ako sa langit ng (Humingi sa langit ng)
           D       G6                           F#m                     G6
Isang himala  Kasalanan  bang (Kasalanan bang) humingi ako sa langit ng
           D           G6        F#m    G6          D           G6
isang himala......... (Kasalanan bang.....)  (Haaaa....haaa......aaahhh...)Haaaa.....
    F#m                   G6                   D
Humingi ako sa langit ng      Isang himala....

Outro: *do intro except last bar

play this instead:

    D
e|-----0---------|
B|----3----------|
G|---2-----------|
D|--0------------|
A|---------------|
E|---------------|

This one was even harder to tab than Fill Her so try I hope everyone who checks it out enjoys
it. I'm pretty sure this is accurate though but if you have doubts,comments or questions,
just e-mail me at duhatvine@onecooldude.com
Mabuhay ang musikang Pilipino!!!!
"Its time 2 free yer mind, its time 2 cleanse yer soul!!!"
Comments