Rivermaya - Elesi Chords & Tabs

 

Elesi Chords & Tabs

Rivermaya Chords & Tabs

Version: 6 Type: Tab 0 ratings
1 star 2 stars 3 stars 4 stars 5 stars
comments

Elesi Tab

Rivermaya - Elesi

Legend:
v - downstroke
^ - upstroke
/ - slide up
~ - vibrato
h - hammer on
p - pull off

Intro

Gtr 1&2

    v v v^v^ ^v ^ ^v^ v v v^v^ ^v ^ ^v^
E|--3-3-3333-33-3-333-3-3-3333-33-2-222--|
B|--3-3-3333-33-3-333-3-3-3333-33-3-333--|
G|--0-0-0000-00-2-222-0-0-0000-00-2-222--| 4x
D|--0-0-0000-00-2-222-2-2-2222-22-0-000--|
A|--2-2-2222-22-0-000-2-2-2222-22--------|
E|--3-3-3333-33-------0-0-0000-00--------|

Verse 1

Gtr 1

    v v v^v^ ^v ^ ^v^ v v v^v^ ^v ^ ^v^
E|--3-3-3333-33-3-333-3-3-3333-33-2-222--|
B|--3-3-3333-33-3-333-3-3-3333-33-3-333--|
G|--0-0-0000-00-2-222-0-0-0000-00-2-222--| 4x
D|--0-0-0000-00-2-222-2-2-2222-22-0-000--|
A|--2-2-2222-22-0-000-2-2-2222-22--------|
E|--3-3-3333-33-------0-0-0000-00--------|

Gtr 2

E|--3-3-3333-33-0-000-0-0-0000-00-2-222--|
B|--3-3-3333-33-2-222-0-0-0000-00-3-333--|
G|--0-0-0000-00-2-222-0-0-0000-00-2-222--| 4x
D|--0-0-0000-00-2-222-2-2-2222-22-0-000--|
A|--2-2-2222-22-0-000-2-2-2222-22--------|
E|--3-3-3333-33-------0-0-0000-00--------|

Pre-Chorus

Gtr 1

    v v v^v ^ ^v^ ^v^        v v v^v ^ ^v^ ^v^
E|--0-0-000-3-333-333-|    --0-0-000-2-222-222--|
B|--1-1-111-3-333-333-|    --0-0-000-3-333-333--|
G|--0-0-000-0-000-000-| 3x --0-0-000-2-222-222--|
D|--2-2-222-0-000-000-|    --2-2-222-0-000-000--|
A|--3-3-333-2-222-222-|    --2-2-222------------|
E|----------3-333-333-|    --0-0-000------------|
                                               v v v^v^ ^v^ ^v
E|--0-0-000-3-333-333-|    --0-0-000-0-000-000-1-1-1111-111-11--|
B|--1-1-111-3-333-333-|    --0-0-000-1-111-111-1-1-1111-111-11--|
G|--0-0-000-0-000-000-| 2x --0-0-000-0-000-000-2-2-2222-222-22--|
D|--2-2-222-0-000-000-|    --2-2-222-2-222-222-3-3-3333-333-33--|
A|--3-3-333-2-222-222-|    --2-2-222-3-333-333-3-3-3333-333-33--|
E|----------3-333-333-|    --0-0-000-----------1-1-1111-111-11--|

Gtr 2

E|--0~~-----3~~--|    --0~~-----2~~--|
B|--1~~-----3~~--|    --0~~-----3~~--|
G|--0~~-----0~~--| 3x --0~~-----2~~--|
D|--2~~-----0~~--|    --2~~-----0~~--|
A|--3~~-----2~~--|    --2~~----------|
E|----------3~~--|    --0~~----------|

E|--0~~-----3~~--|    --0~~-----0~~-----1~~--|
B|--1~~-----3~~--|    --0~~-----1~~-----1~~--|
G|--0~~-----0~~--| 2x --0~~-----0~~-----2~~--|
D|--2~~-----0~~--|    --2~~-----2~~-----3~~--|
A|--3~~-----2~~--|    --2~~-----3~~-----3~~--|
E|----------3~~--|    --0~~-------------1~~--|

Chorus

Gr 1&2

    v v v^v^ ^v ^ ^v^ v v v^v^ ^v ^ ^v^
E|--3-3-3333-33-3-333-3-3-3333-33-2-222--|
B|--3-3-3333-33-3-333-3-3-3333-33-3-333--|
G|--0-0-0000-00-2-222-0-0-0000-00-2-222--| 2x
D|--0-0-0000-00-2-222-2-2-2222-22-0-000--|
A|--2-2-2222-22-0-000-2-2-2222-22--------|
E|--3-3-3333-33-------0-0-0000-00--------|

Verse 2

Gtr 1

    v v v^v^ ^v ^ ^v^ v v v^v^ ^v ^ ^v^
E|--3-3-3333-33-3-333-3-3-3333-33-2-222--|
B|--3-3-3333-33-3-333-3-3-3333-33-3-333--|
G|--0-0-0000-00-2-222-0-0-0000-00-2-222--| 4x
D|--0-0-0000-00-2-222-2-2-2222-22-0-000--|
A|--2-2-2222-22-0-000-2-2-2222-22--------|
E|--3-3-3333-33-------0-0-0000-00--------|

Gtr 2

E|--3-3-3333-33-0-000-0-0-0000-00-2-222--|
B|--3-3-3333-33-2-222-0-0-0000-00-3-333--|
G|--0-0-0000-00-2-222-0-0-0000-00-2-222--|
D|--0-0-0000-00-2-222-2-2-2222-22-0-000--|
A|--2-2-2222-22-0-000-2-2-2222-22--------|
E|--3-3-3333-33-------0-0-0000-00--------|

E|--3-3-3333-33-0-000--------------------|
B|--3-3-3333-33-2-222--------------------|
G|--0-0-0000-00-2-222--------------------| 2x
D|--0-0-0000-00-2-222-2-2-2222-222-222---|
A|--2-2-2222-22-0-000-2-2-2222-222-222---|
E|--3-3-3333-33-------0-0-0000-000-000---|

Pre-Chorus

Gtr 1

    v v v^v ^ ^v^ ^v^        v v v^v ^ ^v^ ^v^
E|--0-0-000-3-333-333-|    --0-0-000-2-222-222--|
B|--1-1-111-3-333-333-|    --0-0-000-3-333-333--|
G|--0-0-000-0-000-000-| 3x --0-0-000-2-222-222--|
D|--2-2-222-0-000-000-|    --2-2-222-0-000-000--|
A|--3-3-333-2-222-222-|    --2-2-222------------|
E|----------3-333-333-|    --0-0-000------------|
                                               v v v^v^ ^v^ ^v
E|--0-0-000-3-333-333-|    --0-0-000-0-000-000-1-1-1111-111-11--|
B|--1-1-111-3-333-333-|    --0-0-000-1-111-111-1-1-1111-111-11--|
G|--0-0-000-0-000-000-| 2x --0-0-000-0-000-000-2-2-2222-222-22--|
D|--2-2-222-0-000-000-|    --2-2-222-2-222-222-3-3-3333-333-33--|
A|--3-3-333-2-222-222-|    --2-2-222-3-333-333-3-3-3333-333-33--|
E|----------3-333-333-|    --0-0-000-----------1-1-1111-111-11--|

Gtr 2
[ Tab from: http://www.guitartabs.cc/tabs/r/rivermaya/elesi_tab_ver_6.html ]
E|--0~~-----3~~--|    --0~~-----2~~--|
B|--1~~-----3~~--|    --0~~-----3~~--|
G|--0~~-----0~~--| 3x --0~~-----2~~--|
D|--2~~-----0~~--|    --2~~-----0~~--|
A|--3~~-----2~~--|    --2~~----------|
E|----------3~~--|    --0~~----------|

E|--0~~-----3~~--|    --0~~-----0~~-----1~~--|
B|--1~~-----3~~--|    --0~~-----1~~-----1~~--|
G|--0~~-----0~~--| 2x --0~~-----0~~-----2~~--|
D|--2~~-----0~~--|    --2~~-----2~~-----3~~--|
A|--3~~-----2~~--|    --2~~-----3~~-----3~~--|
E|----------3~~--|    --0~~-------------1~~--|

Chorus

Gr 1&2

    v v v^v^ ^v ^ ^v^ v v v^v^ ^v ^ ^v^
E|--3-3-3333-33-3-333-3-3-3333-33-2-222--|
B|--3-3-3333-33-3-333-3-3-3333-33-3-333--|
G|--0-0-0000-00-2-222-0-0-0000-00-2-222--| 2x
D|--0-0-0000-00-2-222-2-2-2222-22-0-000--|
A|--2-2-2222-22-0-000-2-2-2222-22--------|
E|--3-3-3333-33-------0-0-0000-00--------|

Solo

Gtr 1

E|--0-0-000-3-333-333-|    --0-0-000-0-000-000-1-1-1111-111-11--|
B|--1-1-111-3-333-333-|    --0-0-000-1-111-111-1-1-1111-111-11--|
G|--0-0-000-0-000-000-| 3x --0-0-000-0-000-000-2-2-2222-222-22--|
D|--2-2-222-0-000-000-|    --2-2-222-2-222-222-3-3-3333-333-33--|
A|--3-3-333-2-222-222-|    --2-2-222-3-333-333-3-3-3333-333-33--|
E|----------3-333-333-|    --0-0-000-----------1-1-1111-111-11--|

(after guitar solo)

    v v v^v^ ^v ^ ^v^ v v v^v^ ^v ^ ^v^
E|--3-3-3333-33-3-333-3-3-3333-33-2-222--|
B|--3-3-3333-33-3-333-3-3-3333-33-3-333--|
G|--0-0-0000-00-2-222-0-0-0000-00-2-222--| 4x
D|--0-0-0000-00-2-222-2-2-2222-22-0-000--|
A|--2-2-2222-22-0-000-2-2-2222-22--------|
E|--3-3-3333-33-------0-0-0000-00--------|

Gtr 2

E|------------------------------------------|
B|------------------------------------------|
G|------------------------------------------|
D|------------------------------------------|
A|--/3-3-2-0-0h2-2-0----/3-3-2-0-0h2-2/10~--|
E|-------------------3~---------------------|

E|--------------------------------------------------------------|
B|------------------------------------------------------/15~~~--|
G|--------------------------------------------------------------|
D|--------------------------------------------------------------|
A|--/3-3-2-0-0h2-2-0--------3/5-3-2h3p2-0---3~~-/10~~~----------|
E|-------------------3~-0-3---------------1---------------------|

Verse 3 (Gtr 1 only)

Gtr 1

    v v v^v^ ^v ^ ^v^ v v v^v^ ^v ^ ^v^
E|--3-3-3333-33-3-333-3-3-3333-33-2-222--|
B|--3-3-3333-33-3-333-3-3-3333-33-3-333--|
G|--0-0-0000-00-2-222-0-0-0000-00-2-222--| 4x
D|--0-0-0000-00-2-222-2-2-2222-22-0-000--|
A|--2-2-2222-22-0-000-2-2-2222-22--------|
E|--3-3-3333-33-------0-0-0000-00--------|

Pre-Chorus

Gtr 1

    v v v^v ^ ^v^ ^v^        v v v^v ^ ^v^ ^v^
E|--0-0-000-3-333-333-|    --0-0-000-2-222-222--|
B|--1-1-111-3-333-333-|    --0-0-000-3-333-333--|
G|--0-0-000-0-000-000-| 3x --0-0-000-2-222-222--|
D|--2-2-222-0-000-000-|    --2-2-222-0-000-000--|
A|--3-3-333-2-222-222-|    --2-2-222------------|
E|----------3-333-333-|    --0-0-000------------|
                                               v v v^v^ ^v^ ^v
E|--0-0-000-3-333-333-|    --0-0-000-0-000-000-1-1-1111-111-11--|
B|--1-1-111-3-333-333-|    --0-0-000-1-111-111-1-1-1111-111-11--|
G|--0-0-000-0-000-000-| 2x --0-0-000-0-000-000-2-2-2222-222-22--|
D|--2-2-222-0-000-000-|    --2-2-222-2-222-222-3-3-3333-333-33--|
A|--3-3-333-2-222-222-|    --2-2-222-3-333-333-3-3-3333-333-33--|
E|----------3-333-333-|    --0-0-000-----------1-1-1111-111-11--|

Gtr 2

E|--0~~-----3~~--|    --0~~-----2~~--|
B|--1~~-----3~~--|    --0~~-----3~~--|
G|--0~~-----0~~--| 3x --0~~-----2~~--|
D|--2~~-----0~~--|    --2~~-----0~~--|
A|--3~~-----2~~--|    --2~~----------|
E|----------3~~--|    --0~~----------|

E|--0~~-----3~~--|    --0~~-----0~~-----1~~--|
B|--1~~-----3~~--|    --0~~-----1~~-----1~~--|
G|--0~~-----0~~--| 2x --0~~-----0~~-----2~~--|
D|--2~~-----0~~--|    --2~~-----2~~-----3~~--|
A|--3~~-----2~~--|    --2~~-----3~~-----3~~--|
E|----------3~~--|    --0~~-------------1~~--|

Chorus

Gr 1&2

    v v v^v^ ^v ^ ^v^ v v v^v^ ^v ^ ^v^
E|--3-3-3333-33-3-333-3-3-3333-33-2-222--|
B|--3-3-3333-33-3-333-3-3-3333-33-3-333--|
G|--0-0-0000-00-2-222-0-0-0000-00-2-222--| 4x
D|--0-0-0000-00-2-222-2-2-2222-22-0-000--|
A|--2-2-2222-22-0-000-2-2-2222-22--------|
E|--3-3-3333-33-------0-0-0000-00--------|

Outro

Gr 1&2

    v v v^v^ ^v ^ ^v^ v v v^v^ ^v ^ ^v^
E|--3-3-3333-33-3-333-3-3-3333-33-2-222--|
B|--3-3-3333-33-3-333-3-3-3333-33-3-333--|
G|--0-0-0000-00-2-222-0-0-0000-00-2-222--| 4x
D|--0-0-0000-00-2-222-2-2-2222-22-0-000--|
A|--2-2-2222-22-0-000-2-2-2222-22--------|
E|--3-3-3333-33-------0-0-0000-00--------|

E|--3~~~--|
B|--3~~~--|
G|--0~~~--|
D|--0~~~--|
A|--2~~~--|
E|--3~~~--|

End

Tabbed by Josef Secillano

All credits to Rivermaya
Comments