Rivermaya - Elesi Chords & Tabs

 

Elesi Chords & Tabs

Rivermaya Chords & Tabs

Version: 5 Type: Tab 0 ratings
1 star 2 stars 3 stars 4 stars 5 stars
comments

Elesi Tab

   

Artist: Rivermaya
Song: Elesi
Tabbed By: Gadasher (GCF_14)
Email: feander_14@yahoo.com
Tuning: EADGBE


Intro:
                        
E|---3---3---3---3---|      
B|---3---3---3---3---|              Bass Intro:
G|---0---2---0---2---| (2x) |-------------------------------|
D|---0---2---2---0---|      |-------------------------------| (2x)
A|---2---0---2---0---|      |-------------------------555---|
E|---3---0---0---0---|      |---33333333-555-00000000-------|


Verse:

E|-------------------------------------------------------------------------|
B|-------------------------------------------------------------------------|
G|-------------------------7---------------------7-----------------------7-|
D|--5-------------7------2-7-----5-------7-----2-7---5-----------7-----2-7-|
A|--5-------------7------2-5-----5-------7-----2-5---5-----------7-----2-5-|
E|--3-------------5------0-------3-------5-----0-----3-----------5-----0---|
   Pag-automatic na ang luha. Tuwing...hating gabi. Pagimposibleng mapatawa.

E|------------------------------|
B|------------------------------|
G|----------------------------7-|
D|-5-------------------7----2-7-|
A|-5-------------------7----2-5-|
E|-3-------------------5----0---|
   At di na madapu-an ng ngiti.
[ Tab from: http://www.guitartabs.cc/tabs/r/rivermaya/elesi_tab_ver_5.html ]
Chorus:
   C       G        C       G           C     G          Em        D
E|-------------------------------------------------------------------------|
B|-------------------------------------------------------------------------|
G|-5----------------5-------------------5--------------------------7-------|
D|-5-------5--------5-------5-----------5-----5-----------2--------7-------|
A|-3-------5--------3-------5-----------3-----5-----------2--------5-------|
E|---------3----------------3-----------------3-----------0----------------|
  Kumapit ka kaya. Sa akin ng ikaw ay. Maitangay sa kalayaan ng ligaya.

        C        G    C         G         Em      C    F            
E|-------------------------------------------------------------------------|
B|-------------------------------------------------------------------------|
G|------5-------------5---------------------------5-----------------------7|
D|------5--------5----5---------5----------2------5----3------------5-7-2-7|
A|------3--------5----3---------5----------2------3----3------------5-7-2-5|
E|---------------3--------------3----------0-----------1------------3-5-0--|
  Tayo na, tayo na. Ika'y magtiwala sa pagkat...gabi..mahiwagang elesi......

  Guitar 2 ( Tayo na, tayo na ikay magtiwala sa pagkat )
E|--8-8-8-7------------------8-8-8-7----------------------|
B|----------10-12-12-12-10-8---------10-12-12-12-10-8-8---|
G|--------------------------------------------------------|
D|--------------------------------------------------------|
A|--------------------------------------------------------|
E|--------------------------------------------------------|

Verse 2:

          PARE TRY NYO LANG THIS PART, MAGANDA NAMANG PAKINGAN.
          KAYO NA LANG BAHALA DITO. BINASE KO ANG PART NA TO 
          NANG TUNUGTOG ANG RIVERMAYA SA MYX (MYX LIVE).

    Pagkatapos ng line na to (PARANG RELONG MADE IN JAPAN)
E|--12-12-12-12-10-10-10-10-10-7-7-7-7-7-10-10-10-10-10---|
B|--12-12-12-12-10-10-10-10-10-7-7-7-7-7-10-10-10-10-10---|
G|--------------------------------------------------------|
D|--------------------------------------------------------|
A|--------------------------------------------------------|
E|--------------------------------------------------------|

Verse 2: Do verse 1 chords/tabs
Solo:    Do chorus chords/tabs
Verse 3: Do verse 1&2 chords/tabs

.................................THAT'S ALL.................................
Comments