Rivermaya - Elesi Chords & Tabs

 

Elesi Chords & Tabs

Rivermaya Chords & Tabs

Version: 4 Type: Tab 0 ratings
1 star 2 stars 3 stars 4 stars 5 stars
comments

Elesi Tab

   
Elesi by Rivermaya

Intro and Stanza: G-Am-Em-D
Refrain: C-G-Am-Em C-G-Em-D
         C-G-Am-Em C-G-F-F

Tayo na, tayo na...
-8-8-8-7-5--5-7-7-7-5-3-
-8-8-8-7-5--5-7-7-7-5-3-
------------------------   (3x)
------------------------
------------------------
------------------------
[ Tab from: http://www.guitartabs.cc/tabs/r/rivermaya/elesi_tab_ver_4.html ]
Instrumental:
------------------------
------------------------
------------------------
------------------------
------------------------
-5s8-8-7-5--5-7-7-7-5-3-

-----------------------
-----------------------
-----------------------
-----------------------
-----------------------
-3s8-8-7-5--5-7-7-8-10-

------------------------
------------------------
------------------------
------------------------
------------------------
-5s8-8-7-5--5-7-7-7-5-3-

----------------------------
----------------------------
----------------------------
----------------------------
-----4s5-3-3s2--------------
-0-3-----------3s2-0-3-3s10-

------
------
------
------
-9s10-
------

-8s10-
------
------
------
------
------

-END-

rs_eradicator@yahoo.com
Comments