Rivermaya - Elesi Chords & Tabs

 

Elesi Chords & Tabs

Rivermaya Chords & Tabs

Version: 1 Type: Tab 0 ratings
1 star 2 stars 3 stars 4 stars 5 stars
comments

Elesi Tab

   
ELESI
Rivermaya

johnsantos_17@yahoo.com

Standard Tuning (EADGBE)

   G  Am Em D  C
E--3--0--0--2--0-------------
B--3--1--0--3--1-------------
G--0--2--0--2--0-------------
D--0--2--2--0--2-------------
A--2--0--2-----3------------
E--3-----0----------------

I.Intro
Gtr. 2 (GAmEmD)

Gtr. 1

E-----------3-------------3---------0-------
B-------3-------3----3------3---3----1------
G-----0-----------0-----------0----------2--
D-------------------------------------------
A-------------------------------------------
E--3----------------------------------------

E-------------0---------0--------2----3-------
B-----0--------0---0----0---0----3-------------
G---------0-------0--------0------------------
D---2-----------------------------------------
A---2-----------------------------------------
E----------------------------------------------

II.Verse 

Gtr. 2 (GAmEmD) 
Gtr. 1 (out)

III. Pre-chorus

Gtrs. 1 & 2 : ( CGCGCGEmD)

IV.Chorus

Gtr. 2: (CGCGCCD)


Gtr. 1
[ Tab from: http://www.guitartabs.cc/tabs/r/rivermaya/elesi_tab.html ]
	Tayo na...	tayo na...	ika'y magtiwala...
E--8-8-8-8--7--5--7-7-7-7--5-sl\-3-sl/-8--8-8-8-8-7-5---7-7--5-sl\-3-3-3-------------
B------------------------------------------------------------------------------------
G------------------------------------------------------------------------------------
D------------------------------------------------------------------------------------
A------------------------------------------------------------------------------------
E------------------------------------------------------------------------------------

V. Interlude:
Same as Intro

VI.Verse:
 - the same

VII.Chorus:
 - the same
 
VIII.Adlib:

Gtr. 2 (pre-chorus chords)

Gtr. 1 (with distortion)

E-------------------------------------------------------------------------3~------
B----------------------------------------------------------------------3----------
G--3-sl/-5-5-4-2---2-4-4-4-2-0---0h3-sl/-5-5-4-2---2-4-4-4-------------------------
D---------------------------------------------------------------------------------
A---------------------------------------------------------------------------------
E ---------------------------------------------------------------------------------

E-------------------------------------------------------------------------------------
B-------------------------------------------------------------------------------------
G-5-5-4-2---2-4-4-4-2-0---0---0--5-sl/-7--5----4h5p4---2p0--------5-----------------
D--------------------------------2-------------------------------------2h3----------
A-------------------------------------------------------------------------------------
E-------------------------------------------------------------------------------------

E--------------------------------------------------------------------------
B--------------------------------------------------------------------------
G-5-sl/-12~-----12-sl/-19~--19-19~sl\--------------------------------------
D--------------------------------------------------------------------------
A--------------------------------------------------------------------------
E--------------------------------------------------------------------------

IX. Verse
-the same

X. Chorus
-the same

XI. Outro
Gtrs. 1 & 2 (GAmEmD)

=====¤w&_17=====
Comments