Rivermaya - Balisong Chords & Tabs

 

Balisong Chords & Tabs

Rivermaya Chords & Tabs

Version: 5 Type: Tab 0 ratings
1 star 2 stars 3 stars 4 stars 5 stars
comments

Balisong Tab

Title: Balisong
Artist: Rivermaya
Tabbed by: Andrei Blanco >> reianloco@yahoo.com
	This tab is for the guitarists of Lourdes School Q.C.
		
	I hope you'll find it nice. This is 99% accurate.
	In the verses, I only hear a keyboard. The guitar only enters in the refrain part.
        	Enjoy!
Intro: 

E|---------------------------------------------|
B|-----8----8-11-10-8-6----8----11-10-8-8------|
G|--10-8-10------8------10-8-10---------8-10-7-|
D|--x--x-x-------x------x--x-x----------x------|
A|--x--6-x-------6------x--6-x----------6------|
E|--10---10-------------10---10----------------|
    You're face...
					T
E|---------------------------------------------|
B|-----8----8-11-10-8-6----8----8-11-10--------|
G|--10-8-10------8------10-8-10------8---------|
D|--x--x-x-------x------x--x-x-------x---------|
A|--x--6-x-------6------x--6-x-------6---------|
E|--10---10-------------10---10----------------|
    Someday you'll...

Verse1: 
     T  T  T    T
E|----------------------------|
B|----------------------------|
G|------5--------5------------| X4
D|----3--------3----8---------|
A|--5-----6--5-----6----------|
E|----------------------------|
    You mesmerize...

Refrain:
[ Tab from: http://www.guitartabs.cc/tabs/r/rivermaya/balisong_tab_ver_5.html ]
E|--6--8---3--6---------|
B|--6--9---4--5---------|
G|--7--10--5--8---------| X2
D|--8--10--5--8---------|
A|--8--8---3--6---------|
E|--6-------------------|
      Never in my...



Solo :

E|--------15-13----------------------15-13-------16*-14----------|
B|--13-15-------15-16-------13-13-15-------15-16-----------------|
G|--------------------13-15--------------------------------------|
D|---------------------------------------------------------------|
A|---------------------------------------------------------------|
E|---------------------------------------------------------------|



Fill: 

E|-----13----13---------|
B|--15----13------------|
G|----------------------| Repeat until end of Song
D|----------------------|
A|----------------------|
E|----------------------|
By->> Andrei Blanco




Balisong

Your face
Lights up the sky
On the highway
Someday
You'll share your world
With me
Someday
You mesmerize me
With diamond eyes
I try to fool myself
To think I'll be alright
But I am losing all control
My mind my heart my body and my soul
Never in my life have I've been more sure
So come on up to me and close the door
Nobody's made me feel this way before
You're everything I've wanted...
...more
To speak or not to
Where to begin
The great dilemmas
I'm finding myself in
For all I know you only see me as a friend
I try to tell myself wake up fool
This fairytale's got to end

End
Comments