Rivermaya - Balisong Chords & Tabs

 

Balisong Chords & Tabs

Rivermaya Chords & Tabs

Version: 2 Type: Tab 0 ratings
1 star 2 stars 3 stars 4 stars 5 stars
comments

Balisong Tab

   
rivermaya
title: balisong



tingin ko tama toh!!! rate nyo n lng kung tama ok!! jepoy_einziger!!!


intro:piano	


verse:
------------------|---------------------|
------------------|---------------------|
------------------|---------------------|
-----0------------|-----9---------------|
---9--------------|--7------------------|
-7----------------|---------------------|

chorus: 
[ Tab from: http://www.guitartabs.cc/tabs/r/rivermaya/balisong_tab_ver_2.html ]
------------------|----------------------|
------------------|----------------------|
--6---------------|--------9-------------|
------7-----------|--------9-------------|
------7-----------|----7-----------------|
--5---------------|----------------------|
     A......            Em......


------------------|----------------------|
------------------|----------------------|
------------------|--------7-------------|
-----9------------|--------7-------------|
-----9------------|----5-----------------|
-7----------------|----------------------|

 Bm..........         Dm...........
                       


ok ba!!! sure toh!! rate nyo toh!!! tmac12_jepoy@yahoo.com
Comments