Rivermaya - Balisong Chords & Tabs

 

Balisong Chords & Tabs

Rivermaya Chords & Tabs

Version: 1 Type: Tab 0 ratings
1 star 2 stars 3 stars 4 stars 5 stars
comments

Balisong Tab

Rivermaya - balisong

Tabber: Vince Kurt Yap

Tuning: EADGBE

Verse:

|------------|
|------------|
|------------|
|--0𧈈-----|
|------------|            
|------------|

Just try to get the timing of this part. 


Chorus:
[ Tab from: http://www.guitartabs.cc/tabs/r/rivermaya/balisong_tab.html ]
|------------------------------------------|
|------------------------------------------|
|-----------------7------------------------|
|--8----8----10---7----8----8----10---8----|
|--8----8----10---5----8----8----10---8----|
|--6----5----8---------6----5----8----6----|

Verse

Chorus

At the end the chorus is repeated 4 times until it fades to the piano again.

Any comment and suggestions just email me at Vinz87@lycos.com
Comments