Rivermaya - Balisong Chords & Tabs

 

Balisong Chords & Tabs

Rivermaya Chords & Tabs

Version: 2 Type: Bass Tab 0 ratings
1 star 2 stars 3 stars 4 stars 5 stars
comments

Balisong Bass Tab

balisong
rivermaya
bass tab

verse 1: only the piano is played on this part. played by rico blanco.

verse 2:
|----------|
|--11--12--|
|----------| 8x
|----------|
[ Tab from: http://www.guitartabs.cc/tabs/r/rivermaya/balisong_btab_ver_2.html ]
chorus:
|------------------------------------------------------------|
|------------------------------------------------------------|
|----------------7-7-7-7-7-7-7-----------------5-5-5-5-5-5-5-|
|-5-5-5-5-5-5-5-----------------9-9-9-9-9-9-9----------------|

verse 3:
|----------|
|--11--12--|
|----------| 8x
|----------|

repeat chorus:
interlude: just play the chorus tab.
repeat chorus:

rivermaya the best tlga. at magaling mag-compose si rico.. 
pero mas maganda sana kung maibalik si bamboo. pero malabo na yata yun.
may sarili na siyang  banda eh! 

nwyz.. im not really sure on this tab pero malapit na rin.
Comments