Rivermaya - Awit Ng Kabataan Chords & Tabs

 

Awit Ng Kabataan Chords & Tabs

Rivermaya Chords & Tabs

Version: 1 Type: Bass Tab 0 ratings
1 star 2 stars 3 stars 4 stars 5 stars
comments

Awit Ng Kabataan Bass Tab

firsT Time k0 2....pag may maLi oR nkalimuTan akong ilagay kusT e-mail me at kt2k_08@yahoo.com

after 4 sets ng rhythm...
E:|---------------------3------------------|
A:|--0h3-5--5/7-5--3-5---------------------|
D:|------------------------5-5/7-5---------|
G:|----------------------------------------|

E:|---------------------3------------------|
A:|--0h3-5--5/7-5--3-5-----55--------------|
D:|----------------------------------------|
G:|----------------------------------------|

HOY!!!!

E:|---------------------33-----------------|
A:|--0h3-5--5-3-5--------------------------|   
D:|----------------------------------------|
G:|----------------------------------------| [2x]

E:|---------------------33-----------------|
A:|----5/7--7-5---5-3-5--------------------|
D:|----------------------------------------|
G:|----------------------------------------|

E:|----------------------------------------|
A:|--0-3---5-------------------------------|
D:|----------------------------------------|
G:|----------------------------------------|

vErsE 1:
[ Tab from: http://www.guitartabs.cc/tabs/r/rivermaya/awit_ng_kabataan_btab.html ]
E:|--3h5------------------3----------------|
A:|------3-5--5/7-5--3-5-------------------|
D:|---------------------------5-5/7-5------|
G:|----------------------------------------|

E:|--3h5------------------3----------------|
A:|-------3-5-5/7-5--3-5-----2-3-5---------|
D:|----------------------------------------|
G:|----------------------------------------|
[Tp0s gAwin ny0 nLng Ung paTTern nyA kung matalino kyo]

CHORUS:

E:|--3h5--------------7--5--3--03----------|
A:|-------3-5-5/7-5------------------------|
D:|----------------------------------------|
G:|----------------------------------------| [2x]

E:|---------------------33-----------------|
A:|--0h3-5--5-3-5--------------------------|   
D:|----------------------------------------|
G:|----------------------------------------| [2x]

BRIDGE:

E:|----------------------------------------|
A:|--33---55-55-------101010-1010----------|   
D:|----------------------------------------|
G:|----------------------------------------| [2x]

dEn gAwin ny0 nLng UNg paTTern ng intr0 sa Adlib ng Lead...if u sTiL d0nT geT iT jUsT
emaiL me,d0nt be shy to ask sUm QuesTions..by d wAy im kRisTinE...a 14 yRs oLd bAssisT.....
Comments