Rivermaya - Atat Chords & Tabs

 

Atat Chords & Tabs

Rivermaya Chords & Tabs

Version: 1 Type: Tab 0 ratings
1 star 2 stars 3 stars 4 stars 5 stars
comments

Atat Tab

   
Rivermaya - Atat (Between the Stars and Waves)
Tabbed by: Franklin Dean
-----------------------------------------------------------------------------
TUNING: Standard tuning
 6  5  4  3  2  1   (String Number)
|E |A |D |G |B |E | (Low to high)
-----------------------------------------------------------------------------
NOTE: This is one of my favorite songs by Rivermaya, and I think it sounds great when
played right. The whole song is not that hard, as long as you know your basic chords.
This is the solo acoustic version. As always, have fun, good luck, and don't give up.
I'll tab the solo once I know what it is.
-----------------------------------------------------------------------------
DIFFICULTY LEVEL: Easy to Medium
-----------------------------------------------------------------------------

INTRO - Fun and easy picking riff.

e|--------------|----------------| TAP TAP
B|--------------|----------------|
G|------------0-|------------2---|
D|--------0-2---|--------0-2-----|
A|---0--4-------|---0--4---------|
E|--------------|----------------|

-----------------------------------------------------------------------------

CHORUS 1 - Down rest down up up down stroke (5 stokes).

     D          G       Em    A       D        G      Em     A
e|---2----------3-------0-----0---|---2--------3------0------0---|
B|---3----------0-------0-----2---|---3--------0------0------2---|
G|---2----------0-------0-----2---|---2--------0------0------2---|
D|---0----------0-------2-----2---|---0--------0------2------2---|
A|---x----------2-------2-----0---|---x--------2------2------0---|
E|---x----------3-------0-----0---|---x--------3------0------0---|
      Gusto ko sanang makita ka        Kanina pa ako atat sa'yo

     D        G     Em    A       Bb             A      D
e|---2--------3-----0-----0---|---1--------------0------2---|
B|---3--------0-----0-----2---|---3--------------2------3---|
G|---2--------0-----0-----2---|---3--------------2------2---|
D|---0--------0-----2-----2---|---3--------------2------0---|
A|---x--------2-----2-----0---|---1--------------0------x---|
E|---x--------3-----0-----0---|---1--------------0------x---|
      Medyo naiipit lang ako       Sana'y maghintay ka lang

-----------------------------------------------------------------------------

VERSE 1 - Same thing.

     D           G            F#m        A    
e|---2-----------3---------|---2----------0---|
B|---3-----------0---------|---2----------2---|
G|---2-----------0---------|---2----------2---|
D|---0-----------0---------|---4----------2---|
A|---x-----------2---------|---4----------0---|
E|---x-----------3---------|---2----------0---|
      Hindi ako mapakali        Sa aking upuan

     D                 G                F#m         A    
e|---2-----------------3------------|---2-----------0---|
B|---3-----------------0------------|---2-----------2---|
G|---2-----------------0------------|---2-----------2---|
D|---0-----------------0------------|---4-----------2---|
A|---x-----------------2------------|---4-----------0---|
E|---x-----------------3------------|---2-----------0---|
      Wala na dito ang isip ko           Nauna na riyan

     Bb            C        F       F           G             A
e|---1-------------0--------1---|---1-----------3-------------0---|
B|---3-------------1--------1---|---1-----------0-------------2---|
G|---3-------------0--------2---|---2-----------0-------------2---|
D|---3-------------2--------3---|---3-----------0-------------2---|
A|---1-------------3--------3---|---3-----------2-------------0---|
E|---1-------------x--------1---|---1-----------3-------------0---|
      Malapit na kasi ang uwian      Sa wakas makikita muli kita

-----------------------------------------------------------------------------

CHORUS 2 - Down rest down up up down stroke (5 stokes).

     D          G       Em    A       D        G      Em     A
e|---2----------3-------0-----0---|---2--------3------0------0---|
B|---3----------0-------0-----2---|---3--------0------0------2---|
G|---2----------0-------0-----2---|---2--------0------0------2---|
D|---0----------0-------2-----2---|---0--------0------2------2---|
A|---x----------2-------2-----0---|---x--------2------2------0---|
E|---x----------3-------0-----0---|---x--------3------0------0---|
      Gusto ko sanang makita ka        Kanina pa ako atat sa'yo
[ Tab from: http://www.guitartabs.cc/tabs/r/rivermaya/atat_tab.html ]
     D        G     Em    A       Bb             A      D
e|---2--------3-----0-----0---|---1--------------0------2---|
B|---3--------0-----0-----2---|---3--------------2------3---|
G|---2--------0-----0-----2---|---3--------------2------2---|
D|---0--------0-----2-----2---|---3--------------2------0---|
A|---x--------2-----2-----0---|---1--------------0------x---|
E|---x--------3-----0-----0---|---1--------------0------x---|
      Medyo naiipit lang ako       Sana'y maghintay ka lang
----------------------------------------------------------------------------

VERSE 2 - Same thing.

     D           G            F#m      A
e|---2-----------3---------|---2----------0---|
B|---3-----------0---------|---2----------2---|
G|---2-----------0---------|---2----------2---|
D|---0-----------0---------|---4----------2---|
A|---x-----------2---------|---4----------0---|
E|---x-----------3---------|---2----------0---|
      Patungo na po ako         sa sakayan

     D                   G              F#m         A
e|---2-------------------3----------|---2-----------0---|
B|---3-------------------0----------|---2-----------2---|
G|---2-------------------0----------|---2-----------2---|
D|---0-------------------0----------|---4-----------2---|
A|---x-------------------2----------|---4-----------0---|
E|---x-------------------3----------|---2-----------0---|
      Wala bang jeep na di puno?         Sasabit nalang

     Bb            C              F
e|---1-------------0--------------1---|
B|---3-------------1--------------1---|
G|---3-------------0--------------2---|
D|---3-------------2--------------3---|
A|---1-------------3--------------3---|
E|---1-------------x--------------1---|
 Tama bang bumuhos nalang bigla ang ulan?

     F          G                         A
e|---1----------3-------------------------0---|
B|---1----------0-------------------------2---|
G|---2----------0-------------------------2---|
D|---3----------0-------------------------2---|
A|---3----------2-------------------------0---|
E|---1----------3-------------------------0---|
      Shempre lusaw ang engineering ng buhok
-------------------------------------------------------------------------

SOLO - I'll add this later when I can actually tell what the heck it is, haha.

     D          G       Em    A       D        G      Em     A
e|---2----------3-------0-----0---|---2--------3------0------0---|
B|---3----------0-------0-----2---|---3--------0------0------2---|
G|---2----------0-------0-----2---|---2--------0------0------2---|
D|---0----------0-------2-----2---|---0--------0------2------2---|
A|---x----------2-------2-----0---|---x--------2------2------0---|
E|---x----------3-------0-----0---|---x--------3------0------0---|

-------------------------------------------------------------------------

Bridge - Keep it up, your doing good.
TIP - Just keep an eye out for the timing and all.

     Am       D            Em                 Am      D           Em
e|---0--------2------------0---------------|--0-------2-----------0-----|
B|---1--------3------------0---------------|--1-------3-----------0-----|
G|---2--------2------------0---------------|--2-------2-----------0-----|
D|---2--------0------------2---------------|--2-------0-----------2-----|
A|---0--------x------------2---------------|--0-------x-----------2-----|
E|---x--------x------------0---------------|--x-------x-----------0-----|
      medyo malapit na ako sa eskwela mo       Sana'y matupad ang nais ko
     Bb              C          F                    G
e|---1---------------0----------1---|----------------3------------------|
B|---3---------------1----------1---|----------------0------------------|
G|---3---------------0----------2---|----------------0------------------|
D|---3---------------2----------3---|----------------0------------------|
A|---1---------------3----------3---|----------------2------------------|
E|---1---------------x----------1---|----------------3------------------|
      Sa pagdaan ng jeepning sinasakyan sana ay matanaw ka habang wala pa
     A         B
e|---0---------2---|
B|---2---------4---|
G|---2---------4---|
D|---2---------4---|
A|---0---------2---|
E|---0---------2---|
      Iyong sundo

-----------------------------------------------------------------------------

CHORUS 3 - Slight variation
TIP - Just wing it.

(E A F#m B)2x

(D G Em A Bb A C G Bb A)

Yeah, I'm lazy, I'll fix this up later. Peace
Comments