Rivermaya - A Love To Share Chords & Tabs

 

A Love To Share Chords & Tabs

Rivermaya Chords & Tabs

Version: 2 Type: Tab 0 ratings
1 star 2 stars 3 stars 4 stars 5 stars
comments

A Love To Share Tab

Title: A love to share
Artist: Rivermaya
Album: Between the Stars and Waves

Standard Tuning: eBGDAE

Intro & Verse 1

e---0--0-0-0------0----0----0--0-0-0-0-0-0--0-0--|\
B---0--0-0-0------0----0----0--0-0-0-0-0-0--0-0--| \
G-9-9--9-9-9--6-6-6--6-6--4-4--4-4-4-4-4-4--4-4--|  \ 6X
D-9-9--9-9-9--6-6-6--6-6--4-4--4-4-4-4-4-4--4-4--|  /
A-7-7--7-7-7--4-4-4--4-4--2-2--2-2-2-2-2-2--2-2--| /
E------------------------------------------------|/

Chorus

e---0--0-0-0------0----0----0--0-0-0-0-0-0--0-0--|\
B---0--0-0-0------0----0----0--0-0-0-0-0-0--0-0--| \
G-9-9--9-9-9--6-6-6--6-6--4-4--4-4-4-4-4-4--4-4--|  \ 2X
D-9-9--9-9-9--6-6-6--6-6--4-4--4-4-4-4-4-4--4-4--|  /
A-7-7--7-7-7--4-4-4--4-4--2-2--2-2-2-2-2-2--2-2--| /
E------------------------------------------------|/

e---0--0-0-0------0----0----0--0-0-0------------|
B---0--0-0-0------0----0----0--0-0-0------------|
G-9-9--9-9-9--6-6-6--6-6--4-4--4-4-4-4-4-4-4-4--| 
D-9-9--9-9-9--6-6-6--6-6--4-4--4-4-4-4-4-4-4-4--| 
A-7-7--7-7-7--4-4-4--4-4--2-2--2-2-2-2-2-2-2-2--|
E------------------------------------0-0-0-0-0--|
[ Tab from: http://www.guitartabs.cc/tabs/r/rivermaya/a_love_to_share_tab_ver_2.html ]
e---0--0-0-0------0----0----0--0-0-0-0-0-0-------|
B---0--0-0-0------0----0----0--0-0-0-0-0-0-------| 
G-9-9--9-9-9--8-8-8--8-8--4-4--4-4-4-4-4-4--4-4--|  
D-9-9--9-9-9--6-6-6--6-6--4-4--4-4-4-4-4-4--4-4--|  
A-7-7--7-7-7--4-4-4--4-4--2-2--2-2-2-2-2-2--2-2--| 
E-------------4-4-4--4-4-------------------------|

Verse 2

e---0--0-0-0------0----0----0--0-0-0-0-0-0--0-0--|\
B---0--0-0-0------0----0----0--0-0-0-0-0-0--0-0--| \
G-9-9--9-9-9--6-6-6--6-6--4-4--4-4-4-4-4-4--4-4--|  \ 4X
D-9-9--9-9-9--6-6-6--6-6--4-4--4-4-4-4-4-4--4-4--|  /
A-7-7--7-7-7--4-4-4--4-4--2-2--2-2-2-2-2-2--2-2--| /
E------------------------------------------------|/

And then Chorus

Outro

e------0-0--0-0-0--0-0--0-0--0-0-0-0-0-0--0-0--|\
B-0-0--0-0--0-0-0--0-0--0-0--0-0-0-0-0-0--0-0--| \
G-8-8--9-9--6-6-6--6-6--4-4--4-4-4-4-4-4--4-4--|  \ 2X
D-8-8--9-9--6-6-6--6-6--4-4--4-4-4-4-4-4--4-4--|  / 
A-6-6--7-7--4-4-4--4-4--2-2--2-2-2-2-2-2--2-2--| /
E-0-0------------------------------------------|/
  
e---0-0-0--0-0-0--0-0----0--0-0-0-0-0-0--0-0---|
B---0-0-0--0-0-0--0-0----0--0-0-0-0-0-0--0-0---|
G-9-9-9-11-6-6-6--6-6--4-4--4-4-4-4-4-4--4-4---|
D-9-9-9-11-6-6-6--6-6--4-4--4-4-4-4-4-4--4-4---|
A-7-7-7-9--4-4-4--4-4--2-2--2-2-2-2-2-2--2-2---|
E----------------------------------------------|

e---0-0-0--0-0-0--0-0---0--|
B---0-0-0--0-0-0--0-0---0--|
G-9-9-9-11-6-6-6--6-6---4--|
D-9-9-9-11-6-6-6--6-6---4--|
A-7-7-7-9--4-4-4--4-4---2--|
E--------------------------|

That's All Hope You Like It.
This is Sonny, hi nga pla sa tropang Katol ng SFNPS and 2 all my Clasm8ts in DBTC....
Comments