Rivermaya - 214 Chords & Tabs

 

214 Chords & Tabs

Rivermaya Chords & Tabs

Version: 8 Type: Tab 0 ratings
1 star 2 stars 3 stars 4 stars 5 stars
comments

214 Tab

Artist: Rivermaya
Song: 214
Tabbed by: Khristian Vinuya(Tarlac City)
Tuning:Standard

Pls. rate this! this is 100% correct!!!

Intro:
intro:
  (keyboards) you can play it in guitar!!!
E|-----8-----10-------------------------------------------------------|
B|----8----10----------------------------------12---------------------|
G|---9---11----12----12-12s14-12-11---------11------------------------|
D|-10--12---------12----------------10-12-9---------------------------|
A|--------------------------------------------------------------------|
E|--------------------------------------------------------------------|
[ Tab from: http://www.guitartabs.cc/tabs/r/rivermaya/214_tab_ver_8.html ]
E|------------------------------------7-7---7-7---3---5---------------|
B|--------------------------12-10-12--8-8---7-7---5---7---------------|
G|----12-11-12-9-12----12-------------9-9---5-5---5---7---------------|
D|-12---------------12----9-------------------------------------------|
A|--------------------------------------------------------------------|
E|--------------------------------------------------------------------|

  riff 1:
    
 e|-----------------------------------------|
 B|-----------------------------------------|
 G|-----------------------------------------|
 D|-----2----sl/6--4--2--5-4-2h4p2----------|
 A|---2---2------------------------5-5sl/7--|
 E|-0---------------------------------------|

                                                         
 e|--------------------------------------------------------|
 B|--------------------------------------------------------|
 G|--------------------------------------------------------|
 D|-----2----sl/6--4--2--5-4-2h4p2----------6h7p6--2h4p2---|
 A|---2---2------------------------5-5sl/7-----------------|
 E|-0------------------------------------------------------|
hindi ko pa nagawan ng tab ung solo part medyo mahirap kasi,.,.
paki rate na lanG,.,.PEACE!!!rock on!!! \m/
Comments