Rivermaya - 214 Chords & Tabs

 

214 Chords & Tabs

Rivermaya Chords & Tabs

Version: 7 Type: Tab 0 ratings
1 star 2 stars 3 stars 4 stars 5 stars
comments

214 Tab

214 
Rivermaya
solo:
E|------------------------------------------------------|
B|-------------------------------------------------12\--|
G|---------------------------------------/12-12---------|
D|--/12-<12^14>-10-<10^12>---------7---5--------10------|
A|-----------------------------5-----7------------------|
E|-------------------------5-7---7----------------------|
                           . . . . . ./\     
                                     / (          /\
                                    /   \        / (
E|--------10----10----14----14^16-14^16-14-12---/   \---------|
B|--10h12----12----12----12-------------------15^17-15-12-15--|
G|------------------------------------------------------------|
D|------------------------------------------------------------|
A|------------------------------------------------------------|
E|------------------------------------------------------------|

E|--12--------------------------------|
B|-----15p14p12-----------------------|
G|--------------14^16-12h14h16--------|
D|------------------------------------|
A|------------------------------------|
E|-----------------------------12b^/--|

E|--/12----12h15h17p15p12--------------------------------|
B|------15----------------17p15p12h15p14p12--------------|
G|------------------------------------------17p15p14p12--|
D|-------------------------------------------------------|
A|-------------------------------------------------------|
E|-------------------------------------------------------|
 

For comments please email me @ muerte@foskco.com
[ Tab from: http://www.guitartabs.cc/tabs/r/rivermaya/214_tab_ver_7.html ]
Comments