Rivermaya - 214 Chords & Tabs

 

214 Chords & Tabs

Rivermaya Chords & Tabs

Version: 6 Type: Tab 0 ratings
1 star 2 stars 3 stars 4 stars 5 stars
comments

214 Tab

214
rivermaya
tabbed by: aNOEmous
anoemous@yahoo.com

this is my first time to make a tab, I hope you will understand it (^^;)

[ Tab from: http://www.guitartabs.cc/tabs/r/rivermaya/214_tab_ver_6.html ]
   ph      ph    
E|------------------------------------------------------|
B|------------------------------------------------------|
G|-/7--7h9p7--54h5p4-----------------------------------|
D|---------------------5--------------5---5-------------|
A|------------------------------5--7----7---------------|
E|------------------------5--7--------------------------|
                               
                                  
E|-----------------------10--12--14--15--15--14--12-------------------|
B|-------------1010h12------------------------------15/17--14--15----|
G|--11h12--12---------------------------------------------------------|
D|--------------------------------------------------------------------|
A|--------------------------------------------------------------------|
E|--------------------------------------------------------------------|

E|---------15-19^--17--15--1719^--19--17--15----------------------|
B|--15/17-----------------------------------------------------------|
G|------------------------------------------------------------------|
D|------------------------------------------------------------------|
A|------------------------------------------------------------------|
E|------------------------------------------------------------------|

E|--15--14--12----------------------------|
B|--------------15--1312h13p12------------------15/17~~---|
G|----------------------------------0~~~tremolo----------|
D|-------------------------------------------------------|
A|-------------------------------------------------------|
E|-------------------------------------------------------|


**
Ph -> pinch harmonic
/  -> slide
h  -> hammer on
p  -> pull off
^  -> bend
~~ -> ring


For comments or corrections, just email me ok?
Thanks to ian for the riffs
Comments