Rivermaya - 214 Chords & Tabs

 

214 Chords & Tabs

Rivermaya Chords & Tabs

Version: 4 Type: Tab 0 ratings
1 star 2 stars 3 stars 4 stars 5 stars
comments

214 Tab

214 by Rivermaya

Instrumental:
----------------------------------------------
----------------------------------------------
----------------------------------------------
-12--12h14-12-10-9h10-9-----------------------
----------------------------10-12-10-10s12-10-
-------------------------12-------------------
[ Tab from: http://www.guitartabs.cc/tabs/r/rivermaya/214_tab_ver_4.html ]
-------------------10-------10----12s10-12-10----10--------
-------------10h12----12s10----12-------------12-----10s12-
-12-12-12-14-----------------------------------------------
-12-12-12-12-----------------------------------------------
-----------------------------------------------------------
-----------------------------------------------------------

-19--17-15-17-17s19--19-17-15-
------------------------------
------------------------------
------------------------------
------------------------------
------------------------------

----12s10-12-10----------
-12-------------12-10----
----------------------12-
-------------------------
-------------------------
-------------------------

-12s10-10-15-17-3-
------------------
------------------
------------------
------------------
------------------

-END-

rs_eradicator@yahoo.com
Comments