Rivermaya - 214 Chords & Tabs

 

214 Chords & Tabs

Rivermaya Chords & Tabs

Version: 2 Type: Tab 0 ratings
1 star 2 stars 3 stars 4 stars 5 stars
comments

214 Tab

   
                                       214
                            As recorded by Rivermaya
                         (From the 1994 Album RIVERMAYA)

Words and Music by Rivermaya
Arranged by Rivermaya
Transcribed by Michael "Rattlesnake" Tee www.geocities.com/michaelbydemand

           E                  Csus2                  D                    G
      x 7 9 9 9 x          x 3 5 5 3 x          x 5 7 7 7 x          3 2 0 0 3 3

          Em7                  Bm                    C                D(type 2)
      0 2 2 0 3 3          x 2 4 4 3 2          x 3 5 5 5 3          x 5 7 7 7 5

 Intro
  Q=80
      C        D             G                   Em7
 4/4
  Gtr I
|------------8----------10-|-10-10-15-17-15-14------|
|----------8---------10----|-12------------------15-|
|--------9--------11-------|-12---------------------|
|-----10-------12----------|------------------------|
|--------------------------|------------------------|
|--------------------------|------------------------|
|
| Gtr I
|--------------------------|--3-----3--5-----2----0-|
|--------------------------|--3-----------3----3--0-|
|--------------------------|----------------------0-|
|--------------------------|--------------0---------|
|--------------------------|------------------------|
|--------------------------|--3-------------------0-|


              C
|----------15-14-15----15----15----15-|
|-(15)--------------15----13----12----|
|-------------------------------------|
|-------------------------------------|
|-------------------------------------|
|-------------------------------------|
|
|--(0)---------0----------------------|
|--(0)-0-------1----------------------|
|--(0)---0-----0----------------------|
|--------------2----------------------|
|--------------3----------------------|
|--(0)--------------------------------|


                                              Pre-Verse
                                           $
  D           Csus2     D                      E
 4/4
                                           Gtr III
                                                |
                                                /

                                           Gtr IV
|---------------------|--------------------||--------------------|
|-12-10-12-10-8---8---|-10----10----8--10--||o-------------------|
|-------12-11-9---9---|-11----11----9--11--||--------------------|
|---------------------|--------------------||-------2---/6-4-2---|
|---------------------|--------------------||o----2---2----------|
|---------------8---8-|----10----10-8--10--||---0----------------|
|
|                                          Gtr II
|---------------------|--------------------||--------------------|
|-------------3-------|--7-----------------||o-^9----------------|
|-------------5-------|--7-----------------||--^9----------------|
|--0----------5-------|--7-----------------||--^9----------------|
|-----------5-3-------|--5-----------------||o-^7----------------|
|--------0------------|--------------------||--------------------|


  Csus2        D           E
   |            |           |                  |
   /            /           /                  /

|-----------------------||-------------------|------||
|----------------------o||-------------------|------||
|-----------------------||-------------------|------||
|--5-4-2h4p2------------||-------6-7-6---2-4-|-2----||
|------------3--5--7---o||-------------------|------||
|--------------------0--||-(0)---------------|------||
|
|-----------------------||-------------------|------||
|-^3-----------^7------o||-^9----------------|------||
|-^5-----------^7-------||-^9----------------|------||
|-^5-----------^7-------||-^9----------------|------||
|-^3-----------^5------o||-^7----------------|------||
|-----------------------||-------------------|------||


   Verse
    E                       Bm
    Gtr II
||--7-7-7-x-7-7-7-x-7-7-7-|-7-7-7-x-7---7-7-x-7---7-7-|
||o-9-9-9-x-9-9-9-x-9-9-9-|-7-7-7-x-7---7-7-x-7---7-7-|
||--9-9-9-x-9-9-9-x-9-9-9-|-7-7-7-x-7---7-7-x-7---7-7-|
||--9-------9-------9-----|-9-------9---------9-------|
||o-7-------7-------7-----|-9-------9---------9-------|
||------------------------|-7-------7---------7-------|
|
|   Gtr IV
||------------------------|---------------------------|
||o-----------------------|-------------------5h7p5-3h|
||------------------------|-----------2h4p2h4---------|
||------------------------|---------------------------|
||o-----------------------|---------------------------|
||------------------------|---------------------------|


  E                       Bm
|-7-7-7-x-7-7-7-x-7-7-7-|-7-7-7-x-7------7-7-x-7-7-7----|
|-9-9-9-x-9-9-9-x-9-9-9-|-7-7-7-x-7------7-7-x-7-7-7----|
|-9-9-9-x-9-9-9-x-9-9-9-|-7-7-7-x-7------7-7-x-7-7-7----|
|-9-------9-------9-----|-9-------9------------9--------|
|-7-------7-------7-----|-9-------9------------9--------|
|-----------------------|-7-------7------------7--------|
|
|-----------------------|-----------/12-----7---4-2----|
|-5---------------------|-----------/12-----7----------|
|-----------------------|-------------------------------|
|-----------------------|-------------------------------|
|-----------------------|-------------------------------|
|-----------------------|-------------------------------|


                         1.                        2.
  A                       Am                        Am
|-0-0-0-x-0-0-0-x-0-0-0-|-0-0-0-x-0-0-0-x-0-0-0--||-5--5--5--5---||
|-2-2-2-x-2-2-2-x-2-2-2-|-1-1-1-x-1-1-1-x-1-1-1-o||-5--5--5--5---||
|-2-2-2-x-2-2-2-x-2-2-2-|-2-2-2-x-2-2-2-x-2-2-2--||-5--5--5--5---||
|-2-------2-------2-----|-2-------2-------2------||-7--7--7--7---||
|-0-------0-------0-----|-0-------0-------0-----o||-7--7--7--7---||
|-----------------------|------------------------||-5--5--5--5---||


   Chorus
    G         Em7         Bm      C
    Gtr II
    |   | | | |   | | |   |   | | ||   | ||
    /   / / / /   / / /   /   / / //   / //

    Gtr I
||------3---------3-----|-----2--------3---|
||o-----3-3-------3-3---|-----3-3------5---|
||----0-----0---0-----0-|---4--------5-----|
||----------------------|------------------|
||o---------------------|-2--------3-------|
||--3-----2---0---------|------------------|


                       1.                2.
                              To Coda  D.S. al Coda
  G         Em7         D(type 2C  D(type 2)
  |   | | | |   | | |   |   | |||  |      |      |
  /   / / / /   / / /   /   / ///  /      /      /

|-----3---------3-----|-----5---3--5---||-----5--5-----||
|-----3-3-------3-3---|-----7---5--7--o||-----7--7-----||
|---0-----0---0-----0-|---7-----5--7---||---7----7-----||
|---------------------|---------5--7---||--------7-----||
|---------------------|-5-------3--5--o||-5------5-----||
|-3-----2---0---------|----------------||--------------||


  &
  G         Em7         Bm       C
  |   | | | |   | | |   |   | | ||   | ||
  /   / / / /   / / /   /   / / //   / //

|-----3---------3-----|-----2--------3---|
|-----3-3-------3-3---|-----3-3------5---|
|---0-----0---0-----0-|---4--------5-----|
|---------------------|------------------|
|---------------------|-2--------3-------|
|-3-----2---0---------|------------------|


  G         Em7         D(type 2C  D(type 2)
  |   | | | |   | | |   |   | |||  |
  /   / / / /   / / /   /   / ///  /

|-----3---------3-----|-----5---3--5----||
|-----3-3-------3-3---|-----7---5--7----||
|---0-----0---0-----0-|---7-----5--7----||
|---------------------|---------5--7----||
|---------------------|-5-------3--5----||
|-3-----2---0---------|-----------------||


 Guitar Solo
  G         Em7           Bm            C
  |         |             |               |
  /         /             /               /

  Gtr I
|-----3---------3-------|----------2-----------3--|
|-----3-3-------3---3---|----------3--3--------5--|
|---0-----0---0-------0-|-----4--------------5----|
|-----------------------|-------------------------|
|-----------------------|-2---------------3-------|
|-3-----2---0-----------|-------------------------|
|
| Gtr V
|-----------------------|-------------------------|
|-----------------------|-------------------------|
|-7-----7h9p7-5-4h5p4---|-------------------------|
|---------------------5-|-5h7p5-------------------|
|-----------------------|-------7-10-10-(10)------|
|-----------------------|-------------------------|


  G                   Em7
  |                    |
  /                    /

|---------3---------------------3----------|
|---------3-------3-------------3-----3----|
|----0--------------0-----0-------------0--|
|------------------------------------------|
|------------------------------------------|
|-3---------------2----0-------------------|
|
|---------------------10-12-10-12-10-15----|
|-8-10-8-10-8-10s12------------------------|
|------------------------------------------|
|------------------------------------------|
|------------------------------------------|
|------------------------------------------|


     D                   C   D
      |                   |  |
      /                   /  /

|-----------------5-------3--5--|
|-----------------7-------5--7--|
|--------7----------------5--7--|
|-------------------------5--7--|
|-----5-------------------3--5--|
|-------------------------------|
|
|-14s15-14-12-10s12-10-8-10-----|
|-------------------------------|
|-------------------------------|
|-------------------------------|
|-------------------------------|
|-------------------------------|


  G                    Em7              Bm              C
    |                  |                 |               |
    /                  /                 /               /

|--------------3------------3---------|---------2----------------3---|
|--------------3---3--------3----3----|---------3--3-------------5---|
|------0-------------0---0----------0-|-------4--------------5-------|
|-------------------------------------|------------------------------|
|-------------------------------------|--2---------------3-----------|
|---3--------------2---0--------------|------------------------------|
|
|-----17b19==(17)r---------17-15---17-|-17b19-----19-17-15-(15)-----|
|-/15---------------------------------|------------------------------|
|-------------------------------------|------------------------------|
|-------------------------------------|------------------------------|
|-------------------------------------|------------------------------|
|-------------------------------------|------------------------------|


  G
    |                          |
    /                          /

|---------------3--------------3-----|
|---------------3-----3--------3-----|
|------0--------------------0--0-----|
|------------------------------------|
|------------------------------------|
|---3-----------------2--------0-----|
|
|-/12-10-----------------------------|
|--------12-10-10b12-10--------------|
|-----------------------12-11-12----|
|------------------------------------|
|-----------------------------10----|
|------------------------------------|


  D        C                 D
    |       |                 |
    /       /                 /
[ Tab from: http://www.guitartabs.cc/tabs/r/rivermaya/214_tab_ver_2.html ]
|-------5---3-----------------5----------------------||
|-------7---5-----------------7----------------------||
|-----7-----5-----------------7----------------------||
|-----------5-----------------7----------------------||
|---5-------3-----------------5----------------------||
|----------------------------------------------------||
|
|   ~~~
|-/12------------------19p17p15----------------------||
|----------15-------15----------17-15-13p12h13p12----||
|-------------16-14-------------------------------14-||
|----------------------------------------------------||
|----------------------------------------------------||
|----------------------------------------------------||


 Out-Chorus
  G          Em7             Bm       C
   |   | | | |     |   | |   |   | | ||   | ||
   /   / / / /     /   / /   /   / / //   / //

|------3-----------3-------|-----2--------3---|
|------3-3---------3---3---|-----3-3------5---|
|----0-----0---0---------0-|---4--------5-----|
|--------------------------|------------------|
|--------------------------|-2--------3-------|
|--3-----2---0-------------|------------------|
|
|  ~~
|--------------------------|------------------|
|--------------------------|------------------|
|-12-------------(12)-----|------------------|
|--------------------------|------------------|
|--------------------------|------------------|
|--------------------------|------------------|


  G         Em7         D(type 2C  D(type 2)
  |   | | | |   | | |   |   | |||  |
  /   / / / /   / / /   /   / ///  /

|-----3---------3-----|-----5---3--5----|
|-----3-3-------3-3---|-----7---5--7----|
|---0-----0---0-----0-|---7-----5--7----|
|---------------------|---------5--7----|
|---------------------|-5-------3--5----|
|-3-----2---0---------|-----------------|
|
|---------------------|-----------------|
|---------------------|-----------------|
|---------------------|-----------------|
|---------------------|-----------------|
|---------------------|-----------------|
|---------------------|-----------------|


  G         Em7         Bm       C
  |   | | | |   | | |   |   | | ||   | ||
  /   / / / /   / / /   /   / / //   / //

|-----3---------3-----|-----2--------3---|
|-----3-3-------3-3---|-----3-3------5---|
|---0-----0---0-----0-|---4--------5-----|
|---------------------|------------------|
|---------------------|-2--------3-------|
|-3-----2---0---------|------------------|


  G         Em7         D(type 2C  D
  |   | | | |   | | |   |   | |||  |
  /   / / / /   / / /   /   / ///  /

|-----3---------3-----|-----5---3--5----|
|-----3-3-------3-3---|-----7---5--7----|
|---0-----0---0-----0-|---7-----5--7----|
|---------------------|---------5--7----|
|---------------------|-5-------3--5----|
|-3-----2---0---------|-----------------|


  G                       Em7
   |           |     |  |  |           |     |  |
   /           /     /  /  /           /     /  /

|-19-17-15----19-17-15----19-17-15----19-17-15----|
|----------17----------17----------17----------17-|
|-------------------------------------------------|
|-------------------------------------------------|
|-------------------------------------------------|
|-------------------------------------------------|


  Bm                      C
   |           |     |  |  |           |     |  |
   /           /     /  /  /           /     /  /

|-19-17-15----19-17-15----19-17-15----19-17-15----|
|----------17----------17----------17----------17-|
|-------------------------------------------------|
|-------------------------------------------------|
|-------------------------------------------------|
|-------------------------------------------------|


  G                       Em7
   |           |     |  |  |           |     |  |
   /           /     /  /  /           /     /  /

|-19-17-15----19-17-15----19-17-15----19-17-15----|
|----------17----------17----------17----------17-|
|-------------------------------------------------|
|-------------------------------------------------|
|-------------------------------------------------|
|-------------------------------------------------|


  D                       C           D(type 2)
   |           |     |  |  |           |
   /           /     /  /  /           /

|-19-17-15----19-17-15----19-17-15----19-17-15----|
|----------17----------17----------17----------17-|
|-------------------------------------------------|
|-------------------------------------------------|
|-------------------------------------------------|
|-------------------------------------------------|


  G                                 Em7
   |              |         |     |  |              |        |  |
   /              /         /     /  /              /        /  /

|-19----17-15----19-----17-15-------19-17----15----19-17----15----|
|-------------17-----------------17-------------17-------------17-|
|-----------------------------------------------------------------|
|-----------------------------------------------------------------|
|-----------------------------------------------------------------|
|-----------------------------------------------------------------|
|
| Gtr V
|-17b19----------17pb19r===17b19-------17b19-------17----15----17-|
|-----------------------------------------------------------------|
|-----------------------------------------------------------------|
|-----------------------------------------------------------------|
|-----------------------------------------------------------------|
|-----------------------------------------------------------------|


  Bm                            C
   |              |     |     |  |              |     |     |
   /              /     /     /  /              /     /     /

|-19----17-15----19-17-15-------19-17-15-------19-17-15-------|
|-------------17-------------17----------17----------------17-|
|-------------------------------------------------------------|
|-------------------------------------------------------------|
|-------------------------------------------------------------|
|-------------------------------------------------------------|
|
|-15b17----------------17b19----------17----15----17-13b15----|
|-------------------------------------------------------------|
|-------------------------------------------------------------|
|-------------------------------------------------------------|
|-------------------------------------------------------------|
|-------------------------------------------------------------|


  G                           Em7
   |               |     |  |  |                       |        |     |
   /               /     /  /  /                       /        /     /

|-19-----17-15----19-17-15----19----17----15----------19----17-15-------|
|--------------17----------17-------------------17-------------------17-|
|-----------------------------------------------------------------------|
|-----------------------------------------------------------------------|
|-----------------------------------------------------------------------|
|-----------------------------------------------------------------------|
|
|-13pb15----------------------------------------------12h15s17-17b19----|
|--------------------------------------------12h13h15-------------------|
|-----------------------------------11h12h14----------------------------|
|-----------------------------12h14-------------------------------------|
|-----------------------------------------------------------------------|
|-----------------------------------------------------------------------|


                         Q=70
  D                      C   D(type 2)
   |           |       || |  |
   /           /       // /  /

|--5-----------5----------3--5--------||
|--7-----------7----------5--7--------||
|--7-----------7----------5--7--------||
|--7-----------7----------5--7--------||
|--5-----------5----------3--5--------||
|-------------------------------------||
|
|-17pb19r17b19---17b19---15----17b19--||
|-------------------------------------||
|-------------------------------------||
|-------------------------------------||
|-------------------------------------||
|-------------------------------------||


 Outro
  Q=80
  E                     C              D
  Gtr III
   |                      |             |
   /                      /             /

  Gtr IV
|---------------------|------------------------|
|---------------------|------------------------|
|---------------------|------------------------|
|---------2---/6-4-2--|---5--4-2h4p2-----------|
|-------2---2---------|--------------3--5--7---|
|--0------------------|----------------------0-|
|
| Gtr II
|---------------------|------------------------|
|-^9------------------|-^-3------------^7------|
|-^9------------------|-^-5------------^7------|
|-^9------------------|-^-5------------^7------|
|-^7------------------|-^-3------------^5------|
|---------------------|------------------------|
|
| Gtr V
|  >
|-17b19---------------|-(17)-------------------|
|---------------------|------------------------|
|---------------------|------------------------|
|---------------------|------------------------|
|---------------------|------------------------|
|---------------------|------------------------|


  E                   C
   |                   |
   /                   /

|-------------------|-------------------|
|-------------------|-------------------|
|-------------------|-------------------|
|-------2---/6-4-2--|--5-4-2------------|
|-----2---2---------|--------3----(3)---|
|-(0)---------------|-------------------|
|
|-------------------|-------------------|
|-^9----------------|-^3----------------|
|-^9----------------|-^5----------------|
|-^9----------------|-^5----------------|
|-^7----------------|-^3----------------|
|-------------------|-------------------|
|
|-------------------|-------------------|
|-------------------|-------------------|
|-------------------|-------------------|
|-------------------|-------------------|
|-------------------|-------------------|
|-------------------|-------------------|


  Q=70
  D               E
   |               |            |
   /               /            /

|---------------|------------|--------*|
|---------------|------------|--------*|
|---------------|------------|--------*|
|--5-4-2-0---2--|-(2)--------|-(2)----*|
|---------------|------------|--------*|
|---------------|------------|--------*|
|
|---------------|------------|--------*|
|-^7------------|-^9---------|--------*|
|-^7------------|-^9---------|--------*|
|-^7------------|-^9---------|--------*|
|-^5------------|-^7---------|--------*|
|---------------|------------|--------*|


Tablature Legend
----------------
 h   - hammer-on
 p   - pull-off
 b   - bend
 pb  - pre-bend
 r   - bend release (if no number after the r, then release immediately)
 /  - slide into or out of (from/to "nowhere")
 s   - legato slide
 S   - shift slide
  - natural harmonic
[n]  - artificial harmonic
n(n) - tapped harmonic
 ~   - vibrato
 tr  - trill
 T   - tap
 TP  - trem. picking
 PM  - palm muting
n/  - tremolo bar dip; n = amount to dip
 n  - tremolo bar down
 n/  - tremolo bar up
/n  - tremolo bar inverted dip
 =   - hold bend; also acts as connecting device for hammers/pulls
   - volume swell (louder/softer)
 x   - on rhythm slash represents muted slash
 o   - on rhythm slash represents single note slash

Misc Legend
-----------
 |  - bar
||  - double bar
||o - repeat start
o|| - repeat end
*|  - double bar (ending)
 :  - bar (freetime)
 $  - Segno
 &  - Coda
Tempo markers -  = BPM(8/16=s8/s16), where s8 = swing 8ths, s16 = swing 16ths
Comments