Rivermaya - 214 Chords & Tabs

 

214 Chords & Tabs

Rivermaya Chords & Tabs

Version: 11 Type: Tab 0 ratings
1 star 2 stars 3 stars 4 stars 5 stars
comments

214 Tab

Artist: Rivermaya
Song: 214
Tabbed by: Gadasher (GCF_14)
Email: feander_14@yahoo.com

Intro:

E|---------8----------14-15----15-15-17-15-14----10-----------|
B|-------8---------15-------15----------------12----------10--|
G|-----9--------14-------------------------------------11-----|
D|--10-------12--------------------------------------9--------|
A|------------------------------------------------------------|
E|------------------------------------------------------------|

E|--15-14-15-12-15----15----15-------------------------8--10--|
B|-----------------15----13----12-10-12-10-8---8-8h10--8--10--|
G|-------------------------------------------9---------9--11--|
D|-----------------------------------------------------10-12--|
A|-----------------------------------------------------10-12--|
E|-----------------------------------------------------8--10--|
[ Tab from: http://www.guitartabs.cc/tabs/r/rivermaya/214_tab_ver_11.html ]
PLAY THIS PART WITH STRUMMING                     PLAY THIS PART BY
                                                    STRUMMING
E|--0-------------------0-----------2--------|    |--0----0----|
B|--0-------------------1-----------3--------|    |--0----0----|
G|--1-------------------0-----------2--------|(2x)|--1h21-1----|
D|--2----2---2/6--4--2--2--4--2-----0--2--0--|    |--2----2h32-|
A|--2--2---2------------3--------3--0--------|    |--2----2----|
E|--0-------------------0-----------0--------|    |--0----0----|

Outro:

PLAY THIS PART WITH STRUMMING.........

E|--0-------------------0---------2----------|--0----------------------|
B|--0-------------------1---------3----------|--0----------------------|
G|--1-------------------0---------2----------|--1----------------------|
D|--2----2---2/6--4--2--2--4--2---0--2--0----|--2----2---2/6--4--2-----|
A|--2--2---2------------3-------3-0----------|--2--2---2---------------|
E|--0-------------------0---------0----------|--0----------------------|

E|--0----------------2------------------0--|
B|--1----------------3------------------0--|
G|--0----------------2------------------1--|
D|--2--4--2----------0--4--2--0-pause-2-2--|
A|--3-------3-pause--0------------------2--|
E|--0----------------0------------------0--|


.........................THAT'S ALL........................
Comments