Rivermaya - 214 Chords & Tabs

 

214 Chords & Tabs

Rivermaya Chords & Tabs

Version: 1 Type: Tab 0 ratings
1 star 2 stars 3 stars 4 stars 5 stars
comments

214 Tab

214
Rivermaya

|------------------------------
|------------------------------
|------------------------------
|-----2---2s6-4-2-5-4-2-----2--	2x
|---2---2---------------3-5----
|-0----------------------------
[ Tab from: http://www.guitartabs.cc/tabs/r/rivermaya/214_tab.html ]
|----------------
|----------------
|-1h2------------
|-----2h4--------
|----------------
|----------------


Friends, i didnt included the chords kc i knew na alam nyo na un e.
Well, as far as i can see correct naman ung intro e but if not mail me na lng @ askjimz@lycos.com

Thnx to my bandmates RaGe, C@ster, Lestat, Pidede and to Denver Sanchez

I LOVE ROCK!!!!
Comments