Rivermaya - 214 Correct Chords & Tabs

 

214 Correct Chords & Tabs

Rivermaya Chords & Tabs

Version: 1 Type: Tab 0 ratings
1 star 2 stars 3 stars 4 stars 5 stars
comments

214 Correct Tab

composer: Rico Blanco
tabbed by: Eron Reyes
e-mail me: ejreyes37@yahoo.com

intro:
e-------------------------------
b-------------------------------
g-------------------------------
d-----2---6-4-2-5-4-4s2-------2-
a---2---2---------------2-2s5---
e-0-----------------------------

e----------------------------------------------
b----------------------------------------------
g---------------------------------1h2-1--------
d-----2---6-4-2-5-4-4s2-------2----------2h4-2-
a---2---2---------------2-2s5------------------
e-0--------------------------------------------

[ Tab from: http://www.guitartabs.cc/tabs/r/rivermaya/214_correct_tab.html ]
outro:
e-------------------------------
b-------------------------------
g-------------------------------
d-----2---6-4-2-5-4-4s2-------2-
a---2---2---------------2-2s5---
e-0-----------------------------

e-----------------------------------------------------------------------
b-----------------------------------------------------------------------
g-----------------------------------------------------------------------
d-----2---6-4-2-5-4-2-------5-4-2-0----2--------------------------------
a---2---2-------------2-------------------7-(or just strum the chord E)-
e-0---------------------------------------------------------------------

End!
Comments