Rivermaya - 214 Chords & Tabs

 

214 Chords & Tabs

Rivermaya Chords & Tabs

Version: 1 Type: Bass Tab 0 ratings
1 star 2 stars 3 stars 4 stars 5 stars
comments

214 Bass Tab

214 Bass Tab

Band: Rivermaya

Tabbed by: bkoy 

Mga  Bro, 1st Bass tab ko po 2! Sana magus2han nyo kc wlang ganyan s estate!!!

July 30,2004
Start 12:01am (Walang magawa eh!)

Intro

G | ---------------------------------------------------------------------- |
D | ---------------------------------------------------------------------- |
A | ---------------------------------------------------------------------- |
E | --1s3----3-5---------------------------------------------------------- |

G | ---------------------------------------------------------------------- |
D | ---------------------------------------------------------------------- |
A | ---------------2----------2-------------2-----------2----------------- |
E |--0----------0--------------0----------0--------------5------------5--- |

1st verse

G | ---------------------------------------------------------------------- |
D | ---------------------------------------------------------------------- |
A | --------------2---222--------------2---222---------------------------- |
E |  --0---000--------------0---000--------------5---555---5---555-------- |

2nd verse

G | ---------------------------------------------------------------------- |
D | ---------------------------------------------------------------------- |
A | -------------2---222---------------2---2-2h4-2-6-8-------------------- |
E | --0---000--------------0---000----------------------5---555---5---555--|

Chorus 1
-
G | ---------------------------------------------------------------------- |
D | ---------------------------------------------------------------------- |
A | ----------------2--2-3--3-------------5--5s3-3-3s5-5--0--------------- |
E | --5-3--3-0--0-------------3--3-0--0-----------------------3----------- |

G | ---------------------------------------------------------------------- |
D | ---------------------------------------------------------------------- |
A | ----------2--2-3--3------------5--------1s5--------------------------- |
E | --3-0--0------------3--3-0--0----------------------------------------- |

Pre-verse

G | ---------------------------------------------------------------------- |
D | ---------------------------------------------------------------------- |
A | ---------------2---2-2---2-------------2---2-2---2-------------------- |
E |--0---0-0---0--------------0---0-0---0-------------5---5-5----1s5-5---- |

3rd verse

G | ---------------------------------------------------------------------- |
D | ---------------------------------------------------------------------- |
A | -------------2---222---------------2---2-2h4-2-6-8-------------------- |
E | --0---000--------------0---000----------------------5---555---5---555- |

4th  verse
[ Tab from: http://www.guitartabs.cc/tabs/r/rivermaya/214_btab.html ]
G | ---------------------------------------------------------------------- |
D | ---------------------------------------------------------------------- |
A | -------------2---222---------------2---2-2h4-2-6-8-------------------- |
E | --0---000--------------0---000----------------------5---555---5---555- |

Chorus 2

G | ---------------------------------------------------------------------- |
D | ---------------------------------------------------------------------- |
A | ----------------2--2-3--3-------------5--5s3-3-3s5-5--0--------------- |
E | --5-3--3-0--0-------------3--3-0--0-----------------------3----------- |

G | ---------------------------------------------------------------------- |
D | ---------------------------------------------------------------------- |
A | ----------2--2-3--3------------5----5-5-5-5--------------------------- |
E | --3-0--0------------3--3-0--0----------------------------------------- |

Solo (Ad Lib)

G | ---------------------------------------------------------------------- |
D | ---------------------------------------------------------------------- |
A | --------------2--2-3--3-------------5--5s3-3-3s5-5--0----------------- |
E | --3--3-0--0-------------3--3-0--0-----------------------3------------- |

G | ---------------------------------------------------------------------- |
D | ---------------------------------------------------------------------- |
A | ----------2--2-3--3----------------5--5s3-3-3s5-5--0------------------ |
E | --3-0--0------------3--3-0------------------------------3------------- |

Chorus 3

G | ---------------------------------------------------------------------- |
D | ---------------------------------------------------------------------- |
A | ----------2--2-3--3-------------5--5s3-3-3s5-5--0--------------------- |
E | --3-0--0-------------3--3-0--0-----------------------3---------------- |

G | ---------------------------------------------------------------------- |
D | ---------------------------------------------------------------------- |
A | ----------2--2-3--3------------5-------5------------------------------ |
E | --3-0--0------------3--3-0--0----------------------------------------- |

Outro

G | ---------------------------------------------------------------------- |
D | ---------------------------------------------------------------------- |
A | --------------2--2-3--3-------------5--5s3-3-3s5-5--0----------------- |
E | --3--3-0--0-------------3--3-0--0-----------------------3------------- |


G | ---------------------------------------------------------------------- |
D | ---------------------------------------------------------------------- |
A | ----------2--2-3--3------------5--5--5--5----------------------------- |
E | --3-0--0------------3--3-0--0----------------------------------------- |

G | ---------------------------------------------------------------------- |
D | ---------------------------------------------------------------------- |
A | --------------2---------2-------------2------------2------------------ |
E |--0---------0-------------0----------0------------0------------1s5----- |
„³End.


s- slide
h- hammer-on

Finish 1:33am (waaaaaaaah! Tapos n. Bye!)

Comment: wla sana¡K pls!
Email me
koybi_22@yahoo.com   „³ add me s friendster.
Comments