River Styx - Mellow Chords & Tabs

 

Mellow Chords & Tabs

River Styx Chords & Tabs

Version: 1 Type: Tab 0 ratings
1 star 2 stars 3 stars 4 stars 5 stars
comments

Mellow Tab

#----------------------------------PLEASE NOTE---------------------------------#
#This file is the author's own work.-------------------------------------------#
#You may only use this file for private study, scholarship, or research.-------#
#------------------------------------------------------------------------------#

Song: Mellow	
Artist: River Styx	
Tuning: Guitar 1 & 2 Standard (EADGBe)
Tabbed by: Christian Cox


Intro (Figure 1)
 Guitar 1:
|--------2--2-2------2---2-------2--2-2------0~~~----|
|--------3--3-3----3---3---------2--2-2----0~~~~~----|
|--2/4-4---------4---------0h2-2---------2~~~~~~~----|
|----------------------------------------------------|
|----------------------------------------------------|
|----------------------------------------------------|

 Guitar 1:						X2
|--------2--2-2------2---2-------2---2h3p2-----2h3p2-|
|--------3--3-3----3---3---------2--2---------2------|
|--2/4-4---------4---------0h2-2---2---------2-------|
|----------------------------------------------------|
|----------------------------------------------------|
|----------------------------------------------------|



Verse (Figure 2)
 Guitar 1:
|--------2--2-2------2---2-------2--2-2------0~~~----|
|--------3--3-3----3---3---------2--2-2----0~~~~~----|
|--2/4-4---------4---------0h2-2---------2~~~~~~~----|
|----------------------------------------------------|
|----------------------------------------------------|
|----------------------------------------------------|
|						     |
|Guitar 2:					     |
|----------------------------------------------------|
|--5/3~~~~~~~~~------3/5p3-2~~~~~~~~~---------2h3p2--|
|----------------------------------------------------|
|----------------------------------------------------|
|----------------------------------------------------|
|----------------------------------------------------|

 Guitar 1:
|--------2--2-2------2---2-------2---2h3p2-----2h3p2-|
|--------3--3-3----3---3---------2--2---------2------|
|--2/4-4---------4---------0h2-2---2---------2-------|
|----------------------------------------------------|
|----------------------------------------------------|
|----------------------------------------------------|
|						     |
|Guitar 2:					     |
|----------------------------------------------------|
|--5/3~~~~~~~~~------3/5p3-2~~~~~~~~~---------2h3p2--|
|----------------------------------------------------|
|----------------------------------------------------|
|----------------------------------------------------|
|----------------------------------------------------|



Pre-chorus (figure 3)
 Guitar 1 (let ring):
|----2---2---2---2---2----2---2---2---2---2/3\2------|
|---3---3---3---3---3----2---2---2---2---2~~~--------|
|--4---4---4---4---4----2---2---2---2---2~~~~--------|
|----------------------------------------------------|
|----------------------------------------------------|
|----------------------------------------------------|
|						     |
|Guitar 2 (let ring):				     |
|--2---------------------2--------------0------------|
|--3---------------------2--------------0------------|
|--4---------------------2--------------2------------|
|----------------------------------------------------|
|----------------------------------------------------|
|----------------------------------------------------|

 Guitar 1 (let ring):
|----2---2---2---2---2----2---2---2---2-0-0-0-0-0----|
|---3---3---3---3---3----2---2---2---2--0-0-0-0-0----|
|--4---4---4---4---4----2---2---2---2---2-2-2-2-2----|
|----------------------------------------------------|
|----------------------------------------------------|
|----------------------------------------------------|
|						     |
|Guitar 2 (let ring):				     |
|--2---------------------2--------------0------------|
|--3---------------------2--------------0------------|
|--4---------------------2--------------2------------|
|----------------------------------------------------|
|----------------------------------------------------|
|----------------------------------------------------|



Chorus (figure 4)
 Guitar 1:
|--------2--------2-------------2--------0-----------|
|--------3--------3-------------2--------0-----------|
|--------4--------4-------------2--------2-----------|
|--2--2--2-----2--2-----2-0--0--0-----0--0-----------|
|--2--2--2--2-----2--2----0--0--0--0-----0-----------|
|----------------------------------------------------|
|						     |
|Guitar 2:					     |
|----------------------------------------------------|
|--2/4~~~~-6b----6.5----6\2--------------------------|
|----------------------------------------------------|
|----------------------------------------------------|
|----------------------------------------------------|
|----------------------------------------------------|

 Guitar 1:
|--------2--------2-------------2--------0-----------|
|--------3--------3-------------2--------0-----------|
|--------4--------4-------------2--------2-----------|
|--2--2--2-----2--2-----2-0--0--0-----0--0-----------|
|--2--2--2--2-----2--2----0--0--0--0-----0-----------|
|----------------------------------------------------|
|						     |
|Guitar 2:					     |
|----------------------------------------------------|
|--2/4~~~~-6b----6.5----6\9-9-9-9-7-6-7-6-4-4h6p4----|
|----------------------------------------------------|
|----------------------------------------------------|
|----------------------------------------------------|
|----------------------------------------------------|
[ Tab from: http://www.guitartabs.cc/tabs/r/river_styx/mellow_tab.html ]
 Guitar 1:
|--------2--------2-------------2--------0-----------|
|--------3--------3-------------2--------0-----------|
|--------4--------4-------------2--------2-----------|
|--2--2--2-----2--2-----2-0--0--0-----0--0-----------|
|--2--2--2--2-----2--2----0--0--0--0-----0-----------|
|----------------------------------------------------|
|						     |
|Guitar 2:					     |
|----------------------------------------------------|
|--2/4~~~~-6b----6.5----6\2--------------------------|
|----------------------------------------------------|
|----------------------------------------------------|
|----------------------------------------------------|
|----------------------------------------------------|

 Guitar 1:
|--------2--------2-------------2--------0-----------|
|--------3--------3-------------2--------0-----------|
|--------4--------4-------------2--------2-----------|
|--2--2--2-----2--2-----2-0--0--0-----0--0-----------|
|--2--2--2--2-----2--2----0--0--0--0-----0-----------|
|----------------------------------------------------|
|						     |
|Guitar 2:					     |
|----------------------------------------------------|
|--2/4~~~~-6b----6.5----6\9-9-9-9-7-6-7-6-4-4h6p4----|
|----------------------------------------------------|
|----------------------------------------------------|
|----------------------------------------------------|
|----------------------------------------------------|



Pre-Guitar Solo (figure 5)
 Guitar 1 (only):
|----------------------------------------------------|
|----------------------------------------------------|
|--4-4-4-4~~~~~--4-4---7-7-7-7~~~~~~--7-7------------|
|--2-2-2-2~~~~~--2-2---5-5-5-5~~~~~~--5-5------------|
|--2-2-2-2~~~~~--2-2---5-5-5-5~~~~~~--5-5------------|
|----------------------------------------------------|


 Guitar 1:
|-----------------------------------2---0~~~~~-------|
|-----------------------------------2---0~~~~~-------|
|--4-4-4-4~~~~~--4-4---2-2-2-2~~~~~-2---2~~~~~-------|
|--2-2-2-2~~~~~--2-2---0-0-0-0~~~~~-0---0~~~~~-------|
|--2-2-2-2~~~~~--2-2---0-0-0-0~~~~~-0---0~~~~~-------|
|----------------------------------------------------|



Guitar Solo (Figure 6)
 Guitar 1:
|----------------------------------------------------|
|----------------------------------------------------|
|--4-4-4-4~~~~~--4-4---7-7-7-7~~~~~~--7-7------------|
|--2-2-2-2~~~~~--2-2---5-5-5-5~~~~~~--5-5------------|
|--2-2-2-2~~~~~--2-2---5-5-5-5~~~~~~--5-5------------|
|----------------------------------------------------|
|						     |
|Guitar 2:                                           |
|----------------------------------------------------|
|----------------------------------------------------|
|--2/4~~~~~~~6b-6.5-6-4-2-4-2-0-4-2/4-4-2-2-4-2------|
|----------------------------------------------------|
|----------------------------------------------------|
|----------------------------------------------------|


 Guitar 1:
|-----------------------------------2---0~~~~~-------|
|-----------------------------------2---0~~~~~-------|
|--4-4-4-4~~~~~--4-4---2-2-2-2~~~~~-2---2~~~~~-------|
|--2-2-2-2~~~~~--2-2---0-0-0-0~~~~~-0---0~~~~~-------|
|--2-2-2-2~~~~~--2-2---0-0-0-0~~~~~-0---0~~~~~-------|
|----------------------------------------------------|
|						     |
|Guitar 2:					     |
|----------------------------------------------------|
|----------------------------------------------------|
|--2/4~~~~~~~-6-7-6-7-6-7-9-7-6-7-6-9-7p6h7p6--------|
|----------------------------------------------------|
|----------------------------------------------------|
|----------------------------------------------------|

 Guitar 1:
|----------------------------------------------------|
|----------------------------------------------------|
|--4-4-4-4~~~~~--4-4---7-7-7-7~~~~~~--7-7------------|
|--2-2-2-2~~~~~--2-2---5-5-5-5~~~~~~--5-5------------|
|--2-2-2-2~~~~~--2-2---5-5-5-5~~~~~~--5-5------------|
|----------------------------------------------------|
|						     |
|Guitar 2:                                           |
|----------------------------------------------------|
|----------------------------------------------------|
|--6/7-7h9-9-9-9h11-11-11-12-11-14-12-11-14-14p12-14-|
|----------------------------------------------------|
|----------------------------------------------------|
|----------------------------------------------------|


 Guitar 1:
|-----------------------------------2---0~~~~~-------|
|-----------------------------------2---0~~~~~-------|
|--4-4-4-4~~~~~--4-4---2-2-2-2~~~~~-2---2~~~~~-------|
|--2-2-2-2~~~~~--2-2---0-0-0-0~~~~~-0---0~~~~~-------|
|--2-2-2-2~~~~~--2-2---0-0-0-0~~~~~-0---0~~~~~-------|
|----------------------------------------------------|
|						     |
|Guitar 2:					     |
|----------------------------------------------------|
|----------------------------------------------------|
|--14h16-16b-16b/14-14-12-11-12-11-9-11-9-7-9-7-6-7/-|
|----------------------------------------------------|
|----------------------------------------------------|
|----------------------------------------------------|



Outro (Figure 1)
 Guitar 1:
|--------2--2-2------2---2-------2--2-2------0~~~----|
|--------3--3-3----3---3---------2--2-2----0~~~~~----|
|--2/4-4---------4---------0h2-2---------2~~~~~~~----|
|----------------------------------------------------|
|----------------------------------------------------|
|----------------------------------------------------|
 
 Guitar 1:						
|--------2--2-2------2---2-------2---2h3p2-----2h3p2-|
|--------3--3-3----3---3---------2--2---------2------|
|--2/4-4---------4---------0h2-2---2---------2-------|
|----------------------------------------------------|
|----------------------------------------------------|
|----------------------------------------------------|
Comments