River City Rebels - The System Chords & Tabs

 

The System Chords & Tabs

River City Rebels Chords & Tabs

Version: 1 Type: Bass Tab 0 ratings
1 star 2 stars 3 stars 4 stars 5 stars
comments

The System Bass Tab

River City Rebels
The System

Intro-Follow along with no one but yourself :) you'll get it
G------------------
D------------------
A-----------55-----
E-3-3-3-3-3--------

Little bass part
G---------------------------------------------------
D-----------------22-33-22----44-77-44-55-44-22-00--
A----22-55-22--33----------55-----------------------
E-33------------------------------------------------
[ Tab from: http://www.guitartabs.cc/tabs/r/river_city_rebels/the_system_btab.html ]
Verse
G------------------------------------------
D------------------------------------------
A----------33333333-55555555---------------
E-33333333--------------------33333333-----

Chours
G---------------------------------------------------------------------
D---------------------------------------------------------------------
A----------33333333----------55555555---------33333333------5555------
E-33333333----------33333333----------3333333----------3333------3333-

Bass part
Verse
Chours
Intro
Chours HOLD each note
Chours

Thats as easy as it gets so rate.
Comments