River City Rebels - Hate To Be Loved Chords & Tabs

 

Hate To Be Loved Chords & Tabs

River City Rebels Chords & Tabs

Version: 1 Type: Tab 0 ratings
1 star 2 stars 3 stars 4 stars 5 stars
comments

Hate To Be Loved Tab

   
-------------------------------------------------------------------------------
			     Hate To be Loved - River City Rebels
-------------------------------------------------------------------------------
Tabbed by:The king, heh shawn.
Email:**********

Tuning:EADGBE (most people like to call it standard)

e|-----------------------|
B|-----------------------|
G|-----------------------|Guitar 1
D|-777---------555-777---|
A|-555-222-333-333-555---|
E|-----000-111-----------|
      intro
e|---------------------13----13-10-|
B|-10-------------13-13----13------|
G|-12^-10--9-10-14-14----14--------|Guitar 2
D|-------12------------------------|
A|---------------------------------|
E|---------------------------------|

e|------------|
B|------------|
G|------------|
D|----555-777-|Guitar 1
A|333-333-555-|
E|111---------|
 Verse
e|----|
B|----|
G|7^7-|Guitar 2
D|----|
A|----|
E|----|
[ Tab from: http://www.guitartabs.cc/tabs/r/river_city_rebels/hate_to_be_loved_tab.html ]
e|----------------|
B|----------------|
G|----------------|
D|----555-10--7---|Guitar 1 Pre-Chorus
A|777-333-8---6---|
E|555-------------|
No lead here
e|-----------------------|
B|-----------------------|
G|-----------------------|Guitar 1 Chorus
D|-777---------555-777---|
A|-555-222-333-333-555---|
E|-----000-111-----------|
                                  
e|-----------------|
B|-----------------|
G|-------12^10-----|
D|12^--10------12^-|Solo
A|---12------------|
E|-----------------|

e|---------------------------------------------------------------------------|
B|---------------------------------------------------------------------------|
G|---------------------------------------------------------------------------|
D|----------------------------------5----------------------------------------|
A|777-555-333-555-777-8-8910-1098-3-3----------------------------------------|
E|555-333-111-333-555-6-678--8-76-1------------------------------------------|
                    Cool thing
ORDER:
Intro
Verse
Pre-Chorus
Chorus
Verse
Pre-Chorus
Chorus
Solo
Cool Thing
Chorus

| /  slide up    bend note ^
| \  slide down
| h  hammer-on
| p  pull-off
| ~  vibrato
| +  harmonic
| x  Mute note                              GIVE A 5 RATING OR ELSE!
===============================================================================
Comments