River City Rebels - Hate Chords & Tabs

 

Hate Chords & Tabs

River City Rebels Chords & Tabs

Version: 1 Type: Bass Tab 0 ratings
1 star 2 stars 3 stars 4 stars 5 stars
comments

Hate Bass Tab

River City Rebels
Hate

Intro/Verse
G----------------------
D----------------------
A-----------5-55-------
E-0-00-5-55------5-55--

Chours
G---------------------------------------
D---------------------------------------
A--------------------5-555555-----------
E-0-000000-5-5555555----------5-555555--
[ Tab from: http://www.guitartabs.cc/tabs/r/river_city_rebels/hate_btab.html ]
Bridge Kinda Thing- U have to listen to the Bass closely
G-------------------------------------
D----------4---4---4------------------
A-5-555555---5---5--------------------
E--------------------555555555555555--

Verse-Bass only First time

End-
G-------------------
D-------------------
A-------------------
E-0-00-0-00-0-00-0--

Thats as easy as it get so...Rate
Comments