Rival Schools - Used For Glue Chords & Tabs

 

Used For Glue Chords & Tabs

Rival Schools Chords & Tabs

Version: 2 Type: Tab 0 ratings
1 star 2 stars 3 stars 4 stars 5 stars
comments

Used For Glue Tab

From: noolie5@hotmail.com
band: Rival Schools
song: used for glue
album: United By Faith


If there is any feedback like the wah wah bits i'm missing then
plz send them to me cos i'd be greatful.

in this song there are 3 basic cord patterns, i've tabed them but you will 
have to listen to the song for the right timings and rythms.

for the bassists this song basically follows the guitar in the chorus buit
just plays the note not the chord


intro (obviousily these aren't the timings just the chords)

first cords before bass and other guitar kicks in missing,
i'l post it another time :-)   
 
E:---------------------------------
B:---------------------------------
G:---------------------------------
D:--4-4-4-4-4-4-4-4--4-4-4-4-------
A:--4-4-4-4-4-4-4-4--4-4-4-4-------
D:--4-4-4-4-4-4-4-4--4-4-4-4------- 4 TIMES 

THEN  a wah wah pedal and some frets which will come another time

THEN play 4 times more

PART (1)
[ Tab from: http://www.guitartabs.cc/tabs/r/rival_schools/used_for_glue_tab_ver_2.html ]
E:---------------------------------
B:---------------------------------
G:---------------------------------
D:--4-4-4-4-4-4-4-4--4-4-4-4-------
A:--4-4-4-4-4-4-4-4--4-4-4-4-------
D:--4-4-4-4-4-4-4-4--4-4-4-4------- 4 TIMES (or so)

PART (2)

E:----------------
B:----------------
G:----------------
D:--0-12-7---0-12-
A:--0-12-7---0-12-
D:--0-12-7---0-12- 

PART (3)

E:----------------------
B:----------------------
G:----------------------
D:--4-4-5-0-----4-4-5-0-
A:--4-4-5-0-----4-4-5-0-
D:--4-4-5-0-----4-4-5-0- TIMEs 2


PART (4) 
solo (might not be exact but sounds kewl)

E:----------------------
B:----------------------
G:----------------------
D:--10-12-14-16-17-16-14-12-10-4-4
A:--08-10-12-14-15-14-12-10-08-4-4
D:-----------------------------4-4


PART (5)
other bit of solo

G:-21-21-21-18-18-18- three times then 

G:-21-21-21(bend this fret 2 steps)


SEQUENCE IS 
(1)(2)(1)(2)(1)(3)(1)(2)(1)(3)(4)(1)(5)(3)


not bad for a first attempt?
thought i'd tab it cos no one else has!

and i'd like to thank my parents for grounding me, my fish for looking at me
and my girlfriend CARA JAYNE!
(ok thats a bit sad)
Comments