Rival Schools - Used For Glue Chords & Tabs

 

Used For Glue Chords & Tabs

Rival Schools Chords & Tabs

Version: 1 Type: Bass Tab 0 ratings
1 star 2 stars 3 stars 4 stars 5 stars
comments

Used For Glue Bass Tab

Artist: Rival Schools
Song: Used For Glue
Tabbed by: Tom

Ths is a correcton of my revious tab. The old one was off on 
the verse, and a lttle bit on the chorus, and hell, some parts 
were all over the place. But this should work.

Main Riff (X8)
G|---------------------------
D|---------------------------
A|---------------------------
E|-2-2-2-2-2-2-2-2--2-2-2-2-2

Verse (X2)
G|---------------------------
D|---------------------------
A|---------------------------
E|-0~------------5-7~-------2

Main Riff (X4)

Verse (X2)

Main Riff (X4)
[ Tab from: http://www.guitartabs.cc/tabs/r/rival_schools/used_for_glue_btab.html ]
Chorus (X2)
G|--------------------------------------
D|--------------------------------------
A|--------------------------------------
E|-2--2-X-X-X-5-5--5-5-0-0--0-0-0--0-0-0

End Chorus (X1)
G|--------------------------------------
D|--------------------------------------
A|--------------------------------------
E|-2--2-X-X-X-5-5--5-5-0----------------

Main Riff (X2)

Verse (X2)

Main Riff (X4)

Chorus (X3)

End Chorus (X1)

Bridge Thingy (X4)
G|-------------
D|----4---4---4
A|-------------
E|-2----2---2--

Main Riff (X11)

Chorus (X5)

End Chorus (X1)


Okay that's it. Any comments or whatever, send em to
bassmonkey24@hotmail.com
Comments