Rival Schools - My Echo Chords & Tabs

 

My Echo Chords & Tabs

Rival Schools Chords & Tabs

Version: 1 Type: Tab 0 ratings
1 star 2 stars 3 stars 4 stars 5 stars
comments

My Echo Tab

Song : My Echo
Band : Rival Schools
Creator : Walter Schreifels
Album : United By Fate 
Tabbed By : Stuart Dunlop (sd__18@hotmail.com)
Posted By : simmo (simmotheaxeman@hotmail.com)
Notes : Standard Tuning

~~~~~~~
The Key
~~~~~~~

h: Hammer Down
p: Pull Off 
b: Bend Current String
/: Slide Up
\: Slide Down
x: Scrape String(s)
~: Let Ring


Intro/Verse
~~~~~~~~~~~

E|---------------0-0-0-0-----------0-0-0-0-|
B|----—----------0-0-0-0-----------0-0-0-0-|
G|-5-5--4-4--3-3-3-3-3-3--4-4--5-5-5-5-5-5-|
D|-5-5--4-4--3-3-3-3-3-3--4-4--5-5-5-5-5-5-|
A|-3-3--2-2--1-1-1-1-1-1--2-2--3-3-3-3-3-3-|
e|-----------------------------------------|



[ Tab from: http://www.guitartabs.cc/tabs/r/rival_schools/my_echo_tab.html ]
Chorus
~~~~~~

E|---------------------------0-0-0--|
B|---------------------------0-0-0--|
G|-7-7-7-7-7--5-5-5-5-5------0-0-0--|
D|-7-7-7-7-7--5-5-5-5-5--5-5-5-5-5--|
A|-5-5-5-5-5--3-3-3-3-3--5-5-5-5-5--|
e|-----------------------3-3-3-3-3--|



Guitar Solo
~~~~~~~~~~~

       (Play first part Twice)
 
  E|--------------------------------|       e|--------------|
  B|1515-151515-14p13-131313-14-13~-|       B|--------------|
  G|--------------------------------|       G|-14-13/12~----|   
  D|--------------------------------|       D|--------------|
  A|--------------------------------|       A|--------------|
  e|--------------------------------|       e|--------------|
Comments