Rival Schools - Hooligans For Life Chords & Tabs

 

Hooligans For Life Chords & Tabs

Rival Schools Chords & Tabs

Version: 1 Type: Tab 0 ratings
1 star 2 stars 3 stars 4 stars 5 stars
comments

Hooligans For Life Tab

   
Hooligans for Life by Rival Schools.(instrumental)
G1=Guitar One and G2=Guitar Two.  
There are some effects in this song, all you really need is a phaser.Enjoy.
Tabbed by:Ryan James

:Intro:G1
e|-2-2-3-3--------2-2-3-3---------------------------------------------------
b|-3-3----- 2-2---3-3-----2-2-3-2-------------------------------------------
g|-2-2------------2-2-------------------------------------------------------
d|-0-0------------0-0-------------------------------------------------------
a|--------------------------------------------------------------------------
e|--------------------------------------------------------------------------

A Phaser is played over the intro:

Next Part:G2
e|---------------------------------------------------------------------------
b|---------------------------------------------------------------------------
g|8-8-8-8----3-3-3-3---------------------------------------------------------
d|---------------------------------------------------------------------------
a|9-9-9-9----4-4-4-4---------------------------------------------------------
e|7-7-7-7----2-2-2-2---------------------------------------------------------
[ Tab from: http://www.guitartabs.cc/tabs/r/rival_schools/hooligans_for_life_tab.html ]
Guitar 1 plays this with the bass.
e|--------------------------------------------------------------------------
b|-12-12-11-9-12-12-11-9-16-14-17-12----------------------------------------
g|--------------------------------------------------------------------------
d|--------------------------------------------------------------------------
a|--------------------------------------------------------------------------
e|--------------------------------------------------------------------------
Guitar 2 plays these power Chords:
e|---------------------------------------------------------------------------
b|---------------------------------------------------------------------------
g|---------------------------------------------------------------------------
d|3-3-3-9------------ 3-3-3-9------------------------------------------------
a|1-1-1-7-5-9-9-5-5-1-1-1-7--5-7-12-12---------------------------------------
e|---------3-7-7-3-3----------- 3-5-10-10------------------------------------
This part is Played by Guitar 1 and leads into the solo.  Listen to "United by Fate" for timing
e|--------------------------------------------------------------------------
b|3-3-3-4-4-4-6-6-6-9-11-9--------------------------------------------------
g|--------------------------------------------------------------------------
d|--------------------------------------------------------------------------
a|--------------------------------------------------------------------------
e|--------------------------------------------------------------------------

Solo (all played on the "B" string)
b|-12-12-12-11-9-7-52-12-12-12-11-9-7-9-11-9-12-12-12-11-9-7-5-2-4-4-5-7-9-11-12

Next Guitar 2 Plays this
e|---------------------------------------------------------------------------
b|---------------------------------------------------------------------------
g|---------------------------------------------------------------------------
d|---------------------------------------------------------------------------
a|9-9-9-9----4-4-4-4---------------------------------------------------------
e|7-7-7-7----2-2-2-2---------------------------------------------------------

Guitar 1 slides in and out of this while Guitar 2 plays the chords above.
b|12  

Ending 
e|--------------------------------------------------------------------------
b|--------------------------------------------------------------------------
g|--------------------------------------------------------------------------
d|--------------------------------------------------------------------------
a|9-9-9-9-9-9-9-9-9-9-9-9---------------------------------------------------
e|7-7-7-7-7-7-7-7-7-7-7-7---------------------------------------------------
Comments