Rites Of Spring - For Want Of Chords & Tabs

 

For Want Of Chords & Tabs

Rites Of Spring Chords & Tabs

Version: 1 Type: Tab 0 ratings
1 star 2 stars 3 stars 4 stars 5 stars
comments

For Want Of Tab

For Want Of
Rites Of Spring
Tabbed by silikium

riff 1
E ---------------------|
B ---------------------|
G ---------------------|
D -0-555p4-0-0--5~-4p0-|
A ---------------------|
E ---------------------|

riff 2
E ---------------|
B ---------------|
G ---------0-4-7-|
D ---------------|
A ---------------|
E ---------------|

riff 3
E ------|
B ------|
G ----2-|
D ----2-|
A ----0-|
E ------|

riff 4
E -----------------|
B --2-2-5-5-77-555-|
G -----------------|
D -----------------|
A -----------------|
E -----------------|
[ Tab from: http://www.guitartabs.cc/tabs/r/rites_of_spring/for_want_of_tab.html ]
riff 5
-7775-3--5-3---|
-------------2-|
---------------|
---------------|
---------------|
---------------|

riff 6
--------------|
----2~---222~-|
----2~---222~-|
----0~---000~-|
--------------|
--------------|

riff 7
E ---------|
B ---------|
G --0-77-0-|
D ---------|
A ---------|
E ---------|


riff 1     x8
riff 2     x6
riff 3     x1
riff 1     x8
riff 2     x6
riff 3     x1
riff 4     x2
riff 5     x2
riff 4     x2
riff 5     x2
riff 6     x1
riff 1     x8
riff 2     x6
riff 3     x1
riff 1     x8
riff 2     x6
riff 3     x1
riff 4     x2
riff 5     x2
riff 4     x2
riff 5     x2
riff 6     x1
riff 7     x5
riff 4     x3
riff 3     x1

send an e-mail to silikium@hotmail.com for request or informations about this tab
Comments