Ritchie Valens - La Bamba Chords & Tabs

 

La Bamba Chords & Tabs

Ritchie Valens Chords & Tabs

Version: 4 Type: Tab 0 ratings
1 star 2 stars 3 stars 4 stars 5 stars
comments

La Bamba Tab

I was looking threw the other tabs and they wern't playing it rigth.
this is how it goes:
[ Tab from: http://www.guitartabs.cc/tabs/r/ritchie_valens/la_bamba_tab_ver_4.html ]
E----------------------------------------------------------------
B----------------------------------------------------------------
G-------------2-0---------------------------2-0------------------
D--------0-2-3--------0-2-3-3-2-0-3---0-2-3----------------------
A---0-2-3-----------3---------------3----------------------------
E-3--------------------------------------------------------------

then it goes like this:
E-0---1---3----------------
B-1---3---3----------------
G-0---3---5----------------
D-2---2---4----------------
A-3---1---3----------------
E-0---1---3----------------
Comments