Ritchie Valens - La Bamba Chords & Tabs

 

La Bamba Chords & Tabs

Ritchie Valens Chords & Tabs

Version: 3 Type: Tab 0 ratings
1 star 2 stars 3 stars 4 stars 5 stars
comments

La Bamba Tab

------------------------------------------------------------
            Real La Bamba Intro - Ritchie Valens
------------------------------------------------------------

By: Joe - Mr_Montez@yahoo.com
[ Tab from: http://www.guitartabs.cc/tabs/r/ritchie_valens/la_bamba_tab_ver_3.html ]
  This Is The Intro Riff As Played In The Movie "La Bamba"
e||--------------------------------------------------------|
b||--------------------------------------------------------|
g||----------------------2--0------------------------------|
d||-------------2-----3--------------0--3--3--2--0---------|
a||----0--2--3-----3--------------2------------------------|
e||-3--------------------------3---------------------------|

       
e||--------------------------------------------------------|
b||*------------------------------------------------------*|
g||-------------2--0--------------------------------0--2--0|
d||----2-----3--------------0--3--3--2-----2-----3---------|
a||*3-----3--------------2--------------3-----3-----------*|
e||--------------------3-----------------------------------|
   "para bailar la bamba"...       Repeat Above ->
         

   This Is A Very Easy Riff To Learn I Learned It By Ear   From Watching The Movie
   If You Have Any Questions E-Mail Me
Comments