Ritchie Valens - Donna Chords & Tabs

 

Donna Chords & Tabs

Ritchie Valens Chords & Tabs

Version: 1 Type: Tab 0 ratings
1 star 2 stars 3 stars 4 stars 5 stars
comments

Donna Tab

e----------------------------------------------------------------------------|
b----------------------------------------------------------------------------|
g-3-0-----5-5-5-1---0-1-3-3-0-----5-5-5-1---0-1-3-0-3------------------------|
d----3-1-1-------3-3---------3-1-1-------3-3---------5-1-1-6-6-6-5-3-8-8-5---|
a----------------------------------------------------------------------------|
E----------------------------------------------------------------------------|
[ Tab from: http://www.guitartabs.cc/tabs/r/ritchie_valens/donna_tab.html ]
e----------------------------------------------------------------------------|
b----------------------------------------------------------------------------|
g----------------------------------------------------------------------------|
d-10-6-3-1-0-3-1-1-5-1-5-----------------------------------------------------|
a-------------------6---8----------------------------------------------------|
E----------------------------------------------------------------------------|

play with it for awhile and you'll get everything the reason i did this in tabs is 
alot of us arent so intel-a-mi-gent and we dont understand chords and im pretty damn 
sure we wanna know this song well most of us please rate this is my second tab so
check outmy intro to 96 quite bitter beings
       ------------------arturo
Comments