Rise To Remain - Nothing Left Chords & Tabs

 

Nothing Left Chords & Tabs

Rise To Remain Chords & Tabs

Version: 2 Type: Tab 0 ratings
1 star 2 stars 3 stars 4 stars 5 stars
comments

Nothing Left Tab

---------------------------------------------------------------------------
                       NOTHING LEFT - RISE TO REMAIN - 2010
---------------------------------------------------------------------------
Tabbed by: Marlon Urch
Email: marlontiage_91@hotmail.co.uk

Album  Bridges Will Burn EP - www.myspace.com/risetoremain
Members - Vocals - Austin Dickinson, Lead Guitar - Ben Tovey, Rhythm Guitar - Will 
Bass - Joe Copcutt, & Drums - Pat Lundy, This song all credit to these guys   :P

Any help correcting will be helpful for me thank you, also if someone could tab solo 
would be more great, credit to you as well

Dedicated To Tom Mitch :D

Drop D tuning: DADGBE

Intro  0.00  0:20
---------------------------------------------------------------------------|
---------------------------------------------------------------------------|
--------------------------2-1---------------------------------2-1----------|
--4-4-2-4---4-4-4-4--2-4-------4-2-----2--4-4-2-4-2~----2--4------4-2~-----|
------------4-4-4-4-----------------4----------------4---------------------|
------------4-4-4-4--------------------------------------------------------|
            . . . .

---------------------------------------------------------------------------|
---------------------------------------------------------------------------|
---------------------------------------------------------------------------|
--4~--------------------------------------------------------------7-6------|
--4~--------------------------------------------------------------7-6------|
--4~--------------------------------------------------------------7-6------|

---------------------------------------------------------------------------|
---------------------------------------------------------------------------|
--------------------------2-1---------------------------------2-1----------|
--4-4-2-4---4-4-4-4--2-4-------4-2-----2--4-4-2-4-2~----2--4-------4-2*~---|
------------4-4-4-4-----------------4----------------4---------------------|
------------4-4-4-4--------------------------------------------------------|
            . . . .

---------------------------------------------------------------------------|
---------------------------------------------------------------------------|
---------------------------------------------------------------------------|
--0~------------------------------------9-------------7------------6-------|
--0~------------------------------------9-------------7------------6-------|
--0~------------------------------------9-------------7------------6-------|


---------------------------------------------------------------------------|
---------------------------------------------------------------------------|
--------------------------2-1---------------------------------2-1----------|
--4-4-2-4---4-4-4-4--2-4-------4-2-----2--4-4-2-4-2~----2--4-------4-2~----|
------------4-4-4-4-----------------4----------------4---------------------|
------------4-4-4-4--------------------------------------------------------|
            . . . .

---------------------------------------------------------------------------|
---------------------------------------------------------------------------|
---------------------------------------------------------------------------|
------------4-4-4-4-------7-6---------------------------------7-6----------|
--9-9-7-9---4-4-4-4--7-9-------9-7-----7--9-9-7-9-7~----7--9-------9-7~----|
------------4-4-4-4-----------------11---------------11--------------------|
            . . . .


----------------------------------------------------------------------------|
----------------------------------------------------------------------------|
--------------------------2-1-------------11---13---14----------------------|
--4-4-2-4---4-4-4-4--2-4-------4-2-----2--x----x----x-----------------------|
------------4-4-4-4-----------------4-----9----11---12----------------------|
------------4-4-4-4---------------------------------------------------------|
            . . . .

---------------------------------------------------------------------------|
---------------------------------------------------------------------------|
------------------------------------------11---13--14----------------------|
------------4-4-4-4-------7-6-------------x----x---x-----------------------|
--9-9-7-9---4-4-4-4--7-9-------9-7-----7--9----11--12----------------------|
------------4-4-4-4-----------------11-------------------------------------|
            . . . .

Verse x2 0:20  0:39 (Both Guitars)

----------------------------------------------------------------------------|
----------------------------------------------------------------------------|
----------------------------------------------------------------------------|
--4-4-4-4-4-4---7-6-6p0-------4-4-4-4-4--7-6-6h7p6*-0--0-0-0-0-0--7-6-4h6p4-|
--4-4-4-4-4-4-----------5p0---4-4-4-4-4----------------0-0-0-0-0------------|
--4-4-4-4-4-4-----------------4-4-4-4-4----------------0-0-0-0-0------------|
  . . . . . .                 . . . . .                . . . . .

---------------------------------------------------------------------------|
---------------------------------------------------------------------------|
---------------------------------------------------------------------------|
--2-7p6--39p7------------------------------------------------------------|
--2-------3----------------------------------------------------------------|
--2-------3----------------------------------------------------------------|


Pre Chorus   0:39 - 0:43 (Rhythm)
----------------------------------------------------------------------------|
----------------------------------------------------------------------------|
--11-13-14-16-11-13-11-10---------------------------------------------------|
--x--x--x--x--x--x--x--x----------------------------------------------------|
--9--11-12-14-9--11-9--8----------------------------------------------------|
----------------------------------------------------------------------------|

Chorus x2   0:44  1:02(Both Guitars)
---------------------------------------------------------------------------|
---------------------------------------------------------------------------|
---------------------------------------------------------------------------|
--4-4-4-4-4--0-0-0-0-0--7-7-7-7-7-2-2-2------------------------------------|
--4-4-4-4-4--0-0-0-0-0--7-7-7-7-7-2-2-2------------------------------------|
--4-4-4-4-4--0-0-0-0-0--7-7-7-7-7-2-2-2------------------------------------|

Verse x2 1:03  1:22(1st time Rhythm Plays Riff With Lead Doing Some Harmonics, Then 
joins Back In On 2nd Time)

----------------------------------------------------------------------------|
----------------------------------------------------------------------------|
----------------------------------------------------------------------------|
--4-4-4-4-4-4---7-6-6p0-------4-4-4-4-4--7-6-6h7p6*-0--0-0-0-0-0--7-6-4h6p4-|
--4-4-4-4-4-4-----------5p0---4-4-4-4-4----------------0-0-0-0-0------------|
--4-4-4-4-4-4-----------------4-4-4-4-4----------------0-0-0-0-0------------|
  . . . . . .                 . . . . .                . . . . .
[ Tab from: http://www.guitartabs.cc/tabs/r/rise_to_remain/nothing_left_tab_ver_2.html ]
---------------------------------------------------------------------------|
---------------------------------------------------------------------------|
---------------------------------------------------------------------------|
--2-7p6--39p7------------------------------------------------------------|
--2-------3----------------------------------------------------------------|
--2-------3----------------------------------------------------------------|

Pre Chorus   1:22  1:28 (Rhythm)
---------------------------------------------------------------------------|
---------------------------------------------------------------------------|
--11-13-14-16-11-13-11-10-10-10-10-----------------------------------------|
--x--x--x--x--x--x--x--x--x--x--x------------------------------------------|
--9--11-12-14-9--11-9--8--8--8--8------------------------------------------|
---------------------------------------------------------------------------|

Chorus x2   1:29  1:48 (Both Guitars)
---------------------------------------------------------------------------|
---------------------------------------------------------------------------|
---------------------------------------------------------------------------|
--4-4-4-4-4--0-0-0-0-0--7-7-7-7-7-6-7-6------------------------------------|
--4-4-4-4-4--0-0-0-0-0--7-7-7-7-7-6-7-6------------------------------------|
--4-4-4-4-4--0-0-0-0-0--7-7-7-7-7-6-7-6------------------------------------|

SOLO  1:47  1:59
---------------------------------------------------------------------------|
---------------------------------------------------------------------------|
---------------------------------------------------------------------------|
--0~----0~------------2~-----4~-----7~----6~-------------------------------|
--0~----0~------------2~-----4~-----7~----6~-------------------------------|
--0~----0~------------2~-----4~-----7~---6~-------------------------------|

Solo  1:59 - 2:18 (breakdown rhythm using the above chords,
Listen to song to find the rhythm & when to strum them use palm muting)

Harmony 2:19  2:37
---------------------------------------------------------------------------|
---------------------------------------------------------------------------|
---------------------------------------------------------------------------|
-----11---12--9/11---------------------------------------7/6---------------|
--99---99-----------------------------9-9-7-9-7----7-9--------9-7----------|
------------------------------------------------11-------------------------|
  ..   ..
---------------------------------------------------------------------------|
---------------------------------------------------------------------------|
---------------------------------------------------------------------------|
-----------------------11---12--9/11---------------------------------------|
--------------------99---99------------------------------------------------|
---------------------------------------------------------------------------|
                    ..   ..

---------------------------------------------------------------------------|
---------------------------------------------------------------------------|
---------------------------------------------------------------------------|
-----11--12--9/11/9---------------------------------------7/6--------------|
--99---99------------------------------9-9-7-9-7----7-9-------9-7----------|
--------------------------------------------------11-----------------------|
  ..   ..

---------------------------------------------------------------------------|
---------------------------------------------------------------------------|
---------------------------------------------------------------------------|
------------------------11--12--9/11/9-------------------------------------|
---------------------99---99-----------------------------------------------|
---------------------------------------------------------------------------|
                     ..   ..

---------------------------------------------------------------------------|
---------------------------------------------------------------------------|
---------------------------------------------------------------------------|
-----11--12--11/14-------------------------------------7/6-----------------|
--99---99----------------------------9-9-7-9-7----7-9-------9-7------------|
-----------------------------------------------11--------------------------|
  ..   ..

---------------------------------------------------------------------------|
---------------------------------------------------------------------------|
---------------------------------------------------------------------------|
-----------------------11--12--11/14---------------------------------------|
--------------------99---99------------------------------------------------|
---------------------------------------------------------------------------|
                    ..   ..

---------------------------------------------------------------------------|
---------------------------------------------------------------------------|
---------------------------------------------------------------------------|
-----11-12---------9/11/14*-15--------------------------------------------|
--99---99------------------------------------------------------------------|
---------------------------------------------------------------------------|
  ..   ..

---------------------------------------------------------------------------|
---------------------------------------------------------------------------|
---------------------------------------------------------------------------|
-------------11-12-9/11/14*-15--------------------------------------------|
----------99---99----------------------------------------------------------|
---------------------------------------------------------------------------|
          ..   ..

Chorus x2   2:38 - 2:57 (Both Guitars)
---------------------------------------------------------------------------|
---------------------------------------------------------------------------|
---------------------------------------------------------------------------|
--4-4-4-4-4--0-0-0-0-0--7-7-7-7-7-6-7-6------------------------------------|
--4-4-4-4-4--0-0-0-0-0--7-7-7-7-7-6-7-6------------------------------------|
--4-4-4-4-4--0-0-0-0-0--7-7-7-7-7-6-7-6------------------------------------|

Outro 2:57  3:00

---------------------------------------------------------------------------|
---------------------------------------------------------------------------|
--------------------2-1----------------------------------------------------|
--4-4-2-4-2~---2--4-----4-2-4~---------------------------------------------|
-------------4-------------------------------------------------------------|
---------------------------------------------------------------------------|

---------------------------------------------------------------------------|
---------------------------------------------------------------------------|
---------------------------------------------------------------------------|
-------------------7/6-----------------------------------------------------|
--9-9-7-9-7----7-9-----9-7-9~----------------------------------------------|
------------11-------------------------------------------------------------|

   / - slide up
   \ - slide down
   b - Bend
   r - Release bend
   ~ - vibrato
   h - hammer-on
   p - Pull off
   * - Pinch Harmonic
   . - Palm Mute
Comments